Аккорды Челенжер - Начинки для гробов

Добавлено: @romashka
Дата добавления: 18 Сентября 2022г.
Рейтинг:
0.0
Просмотров: 17
Транспонировать - +
Проигрыш №1:
|--------------------------|----------------------|-----------------------|
|--1--1--3--4--3--1--------|----------3-----------|--------4--3-----------|
|----------------------3---|--3--1-------------1--|--1--0--------------1--|
|--------------------------|----------------------|-----------------------|
|--------------------------|----------------------|-----------------------|
|--------------------------|----------------------|-----------------------|

------------------------|
--------4--4----3~------|
--1--0------------------|
------------------------|
------------------------|
------------------------|

Проигрыш №2:
|------------------------|
|--4--3--1----4--3--1----|
|------------------------|
|------------------------|
|------------------------|
|------------------------|


E E Q E E Q E E Q E E Q E E E E Q Q
------------------------|------------------------|--4--3------------------|
--4--3--1----4--3--1----|--4--3--1----4--3--1----|--------4--3--0----1----|
------------------------|------------------------|------------------------|
------------------------|------------------------|------------------------|
------------------------|------------------------|------------------------|
------------------------|------------------------|------------------------|

C5
С неполным зарядом, Железным снарядом,
A#5
Забитой обоймой, Убитый автоматом,
G#5
Жизнь разрывала тебя на куски -
A#5 B5
Ты плюнул на всё, и пулю в вески...
Забыв всё что было, Забыв всё что надо,
Забыв про себя ты пошёл с автоматом.
Мозги разрушает, теряешь контроль,
Свинец в твоём сердце - ты мёртвый герой..
Умрёшь ты лет в пять, а может лет в двести,
В чёрном чулане ты просто ГРУЗ 200
Рак тебя съест, или пуля врагов - мы все:
НАЧИНКИ ДЛЯ ГРОБОВ!!!

Припев:
C5 F5 (13)
Я знаю буду здесь..
G#5 G5
В чулане черном отдыхать,
И пусть живая месть
- Живи! -
- Но Помни Кто Ты Есть!
И все мы будем здесь,
Как те - Начинки Для Гробов!
Случайный выстрел вдруг... The End -
НАЧИНКИ ДЛЯ ГРОБОВ!!!

Мы видели многое, чёрт подери!
Как люди сжирали себя изнутри!
Как то что казалось будет всегда,
Рассыпалось в пепел, как наши тела!
Качайся ты в зале, не пей, не кури,
Могила одна, ты как не крути,
Окажемся вместе, нам всем по пути:
Количество мёртвых будет расти
Будь ты несчастен, будь ты любим,
Будь ты успешен, будь ты один,
Секрета здесь нет, но будь ты готов - мы все:
НАЧИНКИ ДЛЯ ГРОБОВ!!!

Припев:
Я знаю буду здесь..
В чулане черном отдыхать,
И пусть живая месть
- Живи! -
- Но Помни Кто Ты Есть!
И все мы будем здесь,
Как те - Начинки Для Гробов!
Случайный выстрел вдруг... The End -
НАЧИНКИ ДЛЯ ГРОБОВ!!!
Наверх