Аккорды Челенжер - Никто не поверит

Добавлено: @romashka
Дата добавления: 18 Сентября 2022г.
Рейтинг:
0.0
Просмотров: 27
Транспонировать - +
Am
Глоток вина
G
И жизнь до дна
F   E
Целую я бокал в засос
Am
Огнём на лёд
G
Так всё пройдёт
F  E
И всё как будто не всерьёз

F  G
Соврёшь
E
И не поймёшь
Am  F
Просто ты уйдёшь
G
Забыть суметь
E   Am
тебя

Припев.

Am
Никто не поверит,
G
Закрытые двери есть
F
Никто не узнает
E
Как душу съедает месть

Am
Никто не увидит
G
Как я умираю здесь
F
Никто не услышит
E
Как мир исчезает/выгорает весь
со мной

Она одна
Мечта моя
Не жизнь растит в себе, а Смерть
Асфальт горит,
Металл кричит,
И сохраниться не успеть

Пропеть
И не сгореть
Счастье разглядеть
Догнать суметь
тебя

Припев.

F G
Ненавсегда
E
Зима прошла
Am F
Я назову тобой звезду
G
Сквозь облака
E
Несёт весна
Am
Тебе любовь, но не мою...

Табулатура.

Куплет ("Глоток вина и жизнь до дна..."):
E |----------------------------|----------------------------|
B |--1--------1--------1-------|--1--------1--------1-------|
G |-----2--------2--------2----|-----2--------2--------2----|
D |--------2--------2----------|--------2--------2----------|
A |----------------------------|----------------------------|
E |----------------------------|----------------------------|

----------------------------|----------------------------|
--1--------1--------1-------|--3--------3--------3-------|
-----2--------2--------2----|-----4--------4--------4----|
--------3--------3----------|--------2--------2----------|
----------------------------|----------------------------|
----------------------------|----------------------------|

----------------------------|----------------------------|
--1--------1--------1-------|--1--------1--------1-------|
-----2--------2--------2----|-----2--------2--------2----|
--------2--------2----------|--------2--------2----------|
----------------------------|----------------------------|
----------------------------|----------------------------|

----------------------------|----------------------------|
--1--------1--------1-------|--3--------3--------3-------|
-----2--------2--------2----|-----4--------4--------4----|
--------3--------3----------|--------2--------2----------|
----------------------------|----------------------------|
----------------------------|----------------------------|

Предприпев ("..Соврешь и не поймешь..."):
----------------------------|----------------------------|
--1--------1--------1-------|-----0--------0--------0----|
-----2--------2--------2----|--5--------5--------5-------|
--------3--------3----------|--------5--------5----------|
----------------------------|----------------------------|
----------------------------|----------------------------|

----------------------------|----------------------------|
--0--------0--------0-------|--0--------0--------0-------|
-----4--------4--------4----|-----5--------5--------5----|
--------2--------2----------|--------7--------7----------|
----------------------------|----------------------------|
----------------------------|----------------------------|

----------------------------|----------------------------|
--1--------1--------1-------|-----0--------0--------0----|
-----2--------2--------2----|--5--------5--------5-------|
--------3--------3----------|--------5--------5----------|
----------------------------|----------------------------|
Наверх