Аккорды Челенжер - Песок под кожей

Добавлено: @romashka
Дата добавления: 18 Сентября 2022г.
Рейтинг:
0.0
Просмотров: 21
Транспонировать - +
Играется с каподастром на первом ладу.

Dm
Песок под кожей
A#
На год моложе
A
Просыплет время
Dm         A#
На жизнь похоже

Dm
В ладонь зажата
A#
Надежда чья-то
A
А вместо крыльев
Dm         A#
Осталась вата

Припев:
Dm
Выбросить страх
A#         A
И начать всё сначала
Dm
Песней надежды
A#         A
чтоб сердце звучало

Рано не поздно
Но мы не уходим
Только песок 
Мы под кожей находим

Слова наружу
А внутрь стужу
не согревает 
Метелью душу

И цветом белым
Ты Между делом
Жизнь на асфальте
Обводишь мелом

Припев

Аккорды на соло:
A# C A Dm   

Табы:
--------1-------------------|--------1-------------------|
--------------2-----3-------|--------------2-----3-------|
-----2-----2----------------|-----3-----3----------------|
--0-------------------------|--3-------------------------|
----------------------------|----------------------------|
----------------------------|----------------------------|

--------0-------------------|--------1-------------------|
--------------2--2--3-------|--------------------2-------|
-----2-----2-----------2----|-----2-----2-----2-----2----|
--2-------------------------|--0-----------2-------------|
----------------------------|----------------------------|
----------------------------|----------------------------|
Наверх