Аккорды Crywank - I’ll Have Some in a Bit

Добавлено: @romashka
Дата добавления: 13 Февраля 2024г.
Рейтинг:
0.0
Просмотров: 112
[Intro]

e|----------------|----------------|--------------------------------|
B|----------------|----------------|--------------------------------|
G|-9-9--9-9-9-9-9-|-4-4--4-4-4-4-4-|-7-7--7-7-7-7-7--7-7--7-7-7-7-7-|x2
D|-9-9--9-9-9-9-9-|-2-2--2-2-2-2-2-|-7-7--7-7-7-7-7--7-7--7-7-7-7-7-|
A|-7-7--7-7-7-7-7-|-3-3--3-3-3-3-3-|-5-5--5-5-5-5-5--5-5--5-5-5-5-5-|
E|----------------|----------------|--------------------------------|

[Verse 1]

e|------------------------------------------------------------------|
B|------------------------------------------------------------------|
G|-9-9--9-9-9-9-9-|-4-4--4-4-4-4-4-|-7-7--7-7-7-7-7--7-7--7-7-7-7-7-|
D|-9-9--9-9-9-9-9-|-2-2--2-2-2-2-2-|-7-7--7-7-7-7-7--7-7--7-7-7-7-7-|
A|-7-7--7-7-7-7-7-|-3-3--3-3-3-3-3-|-5-5--5-5-5-5-5--5-5--5-5-5-5-5-|
E|------------------------------------------------------------------|
"I plate it up and put it down..."

[Verse 2]

e|----------------|----------------|                       |-----------|
B|----------------|----------------|                       |-----------|
G|-4-4--4-4-4-4-4-|-9-9--9-9-9-9-9-|                       |-9---------|
D|-2-2--2-2-2-2-2-|-9-9--9-9-9-9-9-|x4 and on the last one |-9-let ring|
A|-3-3--3-3-3-3-3-|-7-7--7-7-7-7-7-|                       |-7---------|
E|----------------|----------------|                       |-----------|
"There's jokes about my tired eyes..."                    (at the line "...not slept and eaten again.")

[Bridge]

e|------------------------------------------------------------------|
B|------------------------------------------------------------------|
G|-9-9--9-9-9-9-9-|-4-4--4-4-4-4-4-|-7-7--7-7-7-7-7--7-7--7-7-7-7-7-|x2
D|-9-9--9-9-9-9-9-|-2-2--2-2-2-2-2-|-7-7--7-7-7-7-7--7-7--7-7-7-7-7-|
A|-7-7--7-7-7-7-7-|-3-3--3-3-3-3-3-|-5-5--5-5-5-5-5--5-5--5-5-5-5-5-|
E|------------------------------------------------------------------|

e|------------------------------------------------------------------|
B|------------------------------------------------------------------|
G|-9-9--9-9-9-9-9-|-4-4--4-4-4-4-4-|-7-7--7-7-7-7-7--7-7--7-7-7-7-7-|x4
D|-9-9--9-9-9-9-9-|-2-2--2-2-2-2-2-|-7-7--7-7-7-7-7--7-7--7-7-7-7-7-|
A|-7-7--7-7-7-7-7-|-3-3--3-3-3-3-3-|-5-5--5-5-5-5-5--5-5--5-5-5-5-5-|
E|------------------------------------------------------------------|
"I stay up cos I can't sleep..."


e|----------------|----------------|                       |-----------|
B|----------------|----------------|                       |-----------|
G|-4-4--4-4-4-4-4-|-9-9--9-9-9-9-9-|                       |-9---------|
D|-2-2--2-2-2-2-2-|-9-9--9-9-9-9-9-|x4 and on the last one |-9-let ring|
A|-3-3--3-3-3-3-3-|-7-7--7-7-7-7-7-|                       |-7---------|
E|----------------|----------------|                       |-----------|
"Now I know I need to eat..."                              "...when they ask me."

[Outro]

e|------------------------------------------------------------------|
B|------------------------------------------------------------------|
G|-9-9--9-9-9-9-9-|-4-4--4-4-4-4-4-|-7-7--7-7-7-7-7--7-7--7-7-7-7-7-|x2
D|-9-9--9-9-9-9-9-|-2-2--2-2-2-2-2-|-7-7--7-7-7-7-7--7-7--7-7-7-7-7-|
A|-7-7--7-7-7-7-7-|-3-3--3-3-3-3-3-|-5-5--5-5-5-5-5--5-5--5-5-5-5-5-|
E|------------------------------------------------------------------|		
Музыка выражает то, что нельзя выразить словами и то, о чем нельзя молчать (Виктор Гюго)
Мы стремимся к созданию контента, соответствующего всем нормам законодательства и уважающего интеллектуальную собственность. Мы также придаем большое значение тому, чтобы не задеть никого и не оскорбить чьи-либо чувства. Если у вас есть вопросы или претензии по размещенному материалу, пожалуйста, сообщите нам об этом на указанный адрес электронной почты: [email protected].
Шрифт
-
0
+
Прокрутка
-
0
+
Стоп
Наверх