Аккорды Crywank - Memento Mori

Добавлено: @romashka
Дата добавления: 13 Февраля 2024г.
Рейтинг:
0.0
Просмотров: 107
On the intro it goes like this:
e|-------------------------------------------------------------------------|
B|-----0-----0-----0-----0-----0-----0-----0-----0-----0-----0-----0-----0-|
G|-------------------------------------------------------------------------|
D|---5----5-----5-----5----------------------------------------------------|
A|---------------------------7----7-----7-----7------5-----5----5-----5----|
E|-------------------------------------------------------------------------|

their 's a slide before the riff repeats:
e|-------------------------------------------------------------------------|
B|-------------------------------------------------------------------------|
G|-------------------------------------------------------------------------|
D|-------------------------------------------------------------------------|
A|--5/7--------------------------------------------------------------------|
E|-------------------------------------------------------------------------|

first part(until chords)
e|--------------------------------------------------------------------------------------------------|
B|-----0-----0-----0-----0-----0-----0-----0-----0-----0-----0-----0-----0-----0-----0-----0-----0--|
G|--------------------------------------------------------------------------------------------------|
D|--------------------------------------------------------------------------------------------------|
A|--7-----7-----7-----7-----7-----7-----7-----7-----5-----5-----5-----5-----5-----5-----5-----5-----|
E|--------------------------------------------------------------------------------------------------|

Everyone I love is going to die,
and I will die as well.
I think about this before I sleep,
and have since I was a child.
In my life will I make a difference?
In my death will I be missed?
Will I be granted some sort of an afterlife,
or will I just cease to exist?
This fear makes me feel so naive,
I wish that I could just accept,
but I'm chilled by the redundancy of
thoughts collected, but not kept.
Maybe I'm still a stupid little boy,
too weak to understand what will come.
I want to find peace of mind,
maybe no mind is the answer to that condundrum.

Em              G      A
Oh I want to be a baby again.
Em              G          A
Oh I want pure thoughts in my head.
Em              G      A
Oh I want to be a baby again.
Em           G   A
Oh I want to forget.		
Но если и музыка нас оставит, что будет тогда с нашим миром? (Гоголь)
Мы стремимся к созданию контента, соответствующего всем нормам законодательства и уважающего интеллектуальную собственность. Мы также придаем большое значение тому, чтобы не задеть никого и не оскорбить чьи-либо чувства. Если у вас есть вопросы или претензии по размещенному материалу, пожалуйста, сообщите нам об этом на указанный адрес электронной почты: [email protected].
Шрифт
-
0
+
Прокрутка
-
0
+
Стоп
Наверх