Аккорды Crywank - Choo-Choo-Choose Me

Добавлено: @romashka
Дата добавления: 13 Февраля 2024г.
Рейтинг:
0.0
Просмотров: 79
[Intro]
D |---------------------|
A |---------------------|
F#|---------------------|
D |-----0-------0-------|
G#|---------------------|
D#|-10-------9-------0--|

D |------------------0--------|
A |--------------------0------|
F#|--------0-----------0------|
D |-----0----------0----------|
G#|---------------------------|
D#|-10----------9----------0--|

[Verse]
D |-----------------------------------------------------------------------------------|
A |-----------------------------------------------------------------------------------|
F#|--------0------0-------0------0----------------0------0-----------0------0---------|
D |------0------0-------0------0------0----0----0------0------0----0------0------0----|
G#|-----------------------------------------------------------------------------------|
D#|---12------9------10------9------7----3----0------0------0----0------0------0------| x5

D |-------0---------------|
A |--------------0--------|
F#|-----0------0------0---|
D |-----------------------|
G#|-----------------------|
D#|---0------0------0-----| x19

[Chorus]
D |--------------------------------------------|
A |--------------------------------------------|
F#|--------0------0-------0-------0------------|
D |------0------0-------0-------0------0----0--|
G#|-------------------------10-----------------|
D#|---12------9------11-------------11----9----| x4

D |----------------------------------------------------|
A |----------------------------------------------------|
F#|----------------------------------------------------|
D |---0--0--0--0--0--0--0--0--0--0--0--0--0--0--0--0---|
G#|--------------------------0--0--0--0--0--0--0--0----|
D#|--0--0--0--0--0--0--0--0----------------------------|

[Outro]
D |-------0---------------|
A |--------------0--------|
F#|-----0------0------0---|
D |-----------------------|
G#|-----------------------|
D#|---0------0------0-----|  
Но если и музыка нас оставит, что будет тогда с нашим миром? (Гоголь)
Мы стремимся к созданию контента, соответствующего всем нормам законодательства и уважающего интеллектуальную собственность. Мы также придаем большое значение тому, чтобы не задеть никого и не оскорбить чьи-либо чувства. Если у вас есть вопросы или претензии по размещенному материалу, пожалуйста, сообщите нам об этом.
Шрифт
-
0
+
Прокрутка
-
0
+
Стоп
Наверх