Аккорды Everlast - We're All Gonna Die

Добавлено: @romashka
Дата добавления: 18 Марта 2024г.
Рейтинг:
0.0
Просмотров: 41
Транспонировать - +
Intro and Chorus:
E|---------3-1-3p1---|------0-(0)-----0-|
B|-------3---------3-|------1---------1-|
G|-----2-------------|----2---------0---| x4
D|---0---------------|--3---------2-----|
A|-------------------|------------------|
E|-------------------|------------------|

Verse:
  Dm                   F                  C
E|1------------------|-0----------------|-0----------------|
B|3------------------|-1----------------|-1----------------|
G|2------------------|-2----------------|-0----------------|
D|0------------------|-3----------------|-2----------------|
A|-------------------|------------------|------------------|
E|-------------------|------------------|------------------|

E|-1-1-1h2h3p2p3---1-|
B|---------------3---|
G|-------------------|
D|-------------------|
A|-------------------|
E|-------------------|

Interlude:
E|-----1---1s3---3---|-----1---1s3---5--|-----1---1s3---3--|
B|-------3-3s5-----5-|-------3-3s5-----5|-------3-3s5-----5|
G|---2---------4-----|---2---------4----|---2---------4----|
D|-0-----------------|-0----------------|-0----------------|
A|-------------------|------------------|------------------|
E|-------------------|------------------|------------------|

E|----1-----1-----1--|
B|------3-----3-----3|
G|--2-----2-----2----|
D|0------------------|
A|-------------------|
E|-------------------|

Outro:
  Dm                   F                   C
E|---1--1--1---------|----0--0--0--------|----0--0--0--------|
B|----3--3--3--------|-----1--1--1-------|-----1--1--1-------|
G|--2--2--2----------|---2--2--2---------|---0--0--0---------|
D|0------------------|-3-----------------|-2-----------------|
A|-------------------|-------------------|-------------------|
E|-------------------|-------------------|-------------------|

E|---1--1--3-1-------|
B|----3--3-----------|
G|--2--2--2----------|
D|0------------------|
A|-------------------|
E|-------------------|  
Наверх