Аккорды Grace Petrie - She's Not You

Добавлено: @romashka
Дата добавления: 26 Февраля 2024г.
Рейтинг:
0.0
Просмотров: 45
Транспонировать - +
[Intro]

  C           G          D
e|--------------------------3p2----------------|
B|----0h1p0---3-----------------3-----3--------|
G|----------0----4h5p4-0-2--------0h2-------0--| x3
D|--------------------------------------0h2----|
A|-3-------------------------------------------|
E|---------------------------------------------|
  
  C           G          D
e|--------------------------3p2----------------|
B|----0h1p0---3-----------------3--------------|
G|----------0----4h5p4-0-2--------2------------| 
D|---------------------------------------------|
A|-3-------------------------------------------|
E|---------------------------------------------|

[Verse 1]

  G                D               Cadd9
e|-------------------------------------0-0-------------------------|
B|-----3-------3-------3-------3-------3-------3-------3-------3---|
G|---0---0---0---0---0---0---0---0---0---0---0---0---0---0---0---0-|
D|-----------------------------------------------------------------|
A|-------------------------------------------------3-------3-------|
E|-3-------3-------2-------2-------0-------0-----------------------|

  G                D               Em7         Cadd9       D
e|---------------------2---------------------------------------2h3p2-----|
B|-----3-------3-----3---3-------------3-----3-----3-----------------3---|
G|---0---0---0---0-------------------0-----0-----0-------0-2-----------2-|
D|-----------------0-------0-------2-----------------0h2-----------------|
A|---------------------------------------2-----3-------------------------|
E|-3-------3-------------------------------------------------------------|

  G                D               Cadd9
e|-------------------------------------0---------------------------|
B|-----3-------3-------3-------3-------3-------3-------3-----------|
G|---0---0---0---0---0---0---0---0---0---0---0---0---0---0---0-----|
D|-----------------------------------------------------------------|
A|-------------------------------------------------3-------3-------|
E|-3-------3-------2-------2-------0-------0-----------------------|

  G                D               Em7         Cadd9       D
e|-------------------------------------------------------------2h3p2-----|
B|-----3-------3-------3-------3-------3-----3-----3-----------------3---|
G|---0---0---0---0---0---0---0-------0-----0-----0-------0-2-----------2-|
D|---------------------------------2-----------------0h2-----------------|
A|---------------------------------------2-----3-------------------------|
E|-3-------3-------2-------2---------------------------------------------|

[Break]

  C           G          D
e|--------------------------3p2----------------|
B|----0h1p0---3-------------3---3-----3--------|
G|----0-----0----4h5p4-0-2--------0h2-------0--|
D|--------------------------------------0h2----|
A|-3-------------------------------------------|
E|---------------------------------------------|
  
  C           G          D
e|--------------------------3p2----------------|
B|----0h1p0---3-------------3---3-----3--------|
G|----------0----4h5p4-0-2--------0h2-------0--| x2
D|--------------------------------------0h2----|
A|-3-------------------------------------------|
E|---------------------------------------------|

  C           G          D
e|--------------------------3p2----------------|
B|----0h1p0---3-------------3---3--------------|
G|----0-----0----4h5p4-0-2--2-------2----------|
D|---------------------------------------------|
A|-3-------------------------------------------|
E|---------------------------------------------|

[Verse 2]

  G                D               Cadd9
e|-------------------------------------0-0-------------------------|
B|-----3-------3-------3-------3-------3-------3-------3-------3---|
G|---0---0---0---0---0---0---0---0---0---0---0---0---0---0---0---0-|
D|-----------------------------------------------------------------|
A|-------------------------------------------------3-------3-------|
E|-3-------3-------2-------2-------0-------0-----------------------|

  G                D               Em7         Cadd9       D
e|-------------------------------------------------------------2h3p2-----|
B|-----3-------3-------3---------------3-----3-----3-----------------3---|
G|---0---0---0---0---0---0-----------0-----0-----0-------0-2-----------2-|
D|-------------------------0-------2-----------------0h2-----------------|
A|---------------------------------------2-----3-------------------------|
E|-3-------3-------2-----------------------------------------------------|

[Chorus]

  Cadd9    D       Em7           D     Cadd9   D       Em7
e|---------------------------------------------------------------|
B|-----3-------3-------3-------3-----3-----3-------3-------3-----|
G|---0---0---0---0---0---0---0-----0-----0---0---0---0---0---0---|
D|---------0-------2-------2-----0-------------0-------2-------2-|
A|-3-----------------------------------3-------------------------|
E|---------------------------------------------------------------|

  Cadd9    D       Em7           D     Cadd9   D      G
e|---------------------------------------------------------------|
B|-----3-------3-------3-------3-----3-----3-------3-------3-----|
G|---0---0---0---0---0---0---0-----0-----0---0---0---0---0---0---|
D|---------0-------2-------2-----0-------------0-----------------|
A|-3-----------------------------------3-------------------------|
E|-----------------------------------------------------3-------3-|

[Break]

  C           G          D
e|--------------------------3p2----------------|
B|----0h1p0---3-------------3---3-----3--------|
G|----0-----0----4h5p4-0-2--------0h2-------0--|
D|--------------------------------------0h2----|
A|-3-------------------------------------------|
E|---------------------------------------------|
  
  C           G          D
e|--------------------------3p2----------------|
B|----0h1p0---3-------------3---3-----3--------|
G|----------0----4h5p4-0-2--------0h2-------0--| x2
D|--------------------------------------0h2----|
A|-3-------------------------------------------|
E|---------------------------------------------|

  C           G          D
e|--------------------------3p2----------------|
B|----0h1p0---3-------------3---3--------------|
G|----0-----0----4h5p4-0-2--2-------2----------|
D|---------------------------------------------|
A|-3-------------------------------------------|
E|---------------------------------------------|

[Verse 2]

  G                D               Cadd9
e|-----------------------------------------------------------------|
B|-3---------------3-------------------3-------3-------3-------3---|
G|-0---------------0-----------------0---0---0---0---0---0---0---0-|
D|---------------------------------------------------------0-------|
A|---------------------------------3-------2-----------------------|
E|-3---------------2-------------------------------3---------------|

  G                D               Em7         Cadd9       D
e|-------------------------------------------------------------2h3p2-----|
B|-----3-------3-------3---------------3-----3-----3-----------------3---|
G|---0---0---0---0---0---0-----------0-----0-----0-------0-2-----------2-|
D|-------------------------0-------2-----------------0h2-----------------|
A|---------------------------------------2-----3-------------------------|
E|-3-------3-------2-----------------------------------------------------|

  Em7          Cadd9      G                   Em7         G           Cadd9
e|-----------------------------3-3----------------------------------------------|
B|-----3-----3-----3-----3-----3------------------3-----3-----3-----3-----3-----|
G|---0-----0-----0-----0-----0---0--------------0-----0-----0-----0-----0---0---|
D|-2-----------------0------------------------2-----1-----0---------------------|
A|-------2-----3------------------------------------------------2-----3-------3-|
E|-------------------------3-------3--------------------------------------------|

[Chorus]

  Cadd9    D       Em7           D     Cadd9   D       Em7
e|---------------------------------------------------------------|
B|-----3-------3-------3-------3-----3-----3-------3-------3-----|
G|---0---0---0---0---0---0---0-----0-----0---0---0---0---0---0---|
D|---------0-------2-------2-----0-------------0-------2-------2-|
A|-3-----------------------------------3-------------------------|
E|---------------------------------------------------------------|

  Cadd9    D       Em7           D     Cadd9   D      G
e|---------------------------------------------------------------|
B|-----3-------3-------3-------3-----3-----3-------3-------3-----|
G|---0---0---0---0---0---0---0-----0-----0---0---0---0---0---0---|
D|---------0-------2-------2-----0-------------0-----------------|
A|-3-----------------------------------3-------------------------|
E|-----------------------------------------------------3-------3-|

  Cadd9    D       G         
e|-------------------------3-|
B|-----3-------3-------3---3-|
G|---0---0---0---0---0---0-0-|
D|---------0---------------0-|
A|-3-----------------------2-|
E|-----------------3-------3-|

************************************
[Intro]
C G D x4

[Verse 1]
  G
I got myself a baby
       D
Yeah I found somebody new
          Cadd9
And she's beautiful, she's lovely

But most of all she's true
             G
Yeah and she could have any lover
         D
But it's me she's holding too
              Em7  Cadd9 D
But she's not you
       G
Let me tell you 'bout my baby
         D
Yeah she never makes me blue
      Cadd9
Never wonder where I'm standing

Like I always did with you
                G
Yeah 'cause she never keeps me guessing
        D
In that way you used to do
               Em7  Cadd9 D
Yeah she's not you

[Break]
C G D x4

[Verse 2]
          G
And I can always reach my baby
         D
Ain't no walls to battle through
          Cadd9
She's not afraid of saying those words

'Cause she's not afraid they're true
               G
Yeah 'cause to hold my heart to ransom
           D
Just ain't something that she'd do
                Em7 Cadd9 D
Yeah she's not you

[Chorus 1]
             Cadd9              D                   Em7          D
And I wonder what in this whole world would cure my foolishness
             Cadd9          D            Em7
And I wonder when will I be free of this disease
               Cadd9             D               Em7      D
That with this whole world at my feet I long for Jupiter
              Cadd9           D             Em7
And turn down empires to wait for you on my knees

[Break]
C G D x4

[Verse 3]
     G
So I found myself a baby
             D
'Cause I had nothing else to do
     Cadd9
Than sit around and think about 

The space from me to you
           G
Yeah and I think she'd be mine always 
     D
If I only asked her to
               Em7 Cadd9 D
But she's not you
   Em7                   Cadd9
Oh I think she'd be mine always 
     G
If I only asked her to
               Em7 G Cadd9
But she's not you

[Chorus 2]
             Cadd9              D                   Em7         D
And I wonder what in this whole world would cure my foolishness
         Cadd9          D            Em7
I wonder when will I be free of this disease
               Cadd9             D               Em7     D
That with this whole world at my feet I long for Jupiter
              Cadd9           D             Em7
And turn down empires to wait for you on my knees
                 Cadd9            D                   G
And walk through bonfires to wait for you on my knees

************************************

| p  Pull-off
| h  Hammer-on

************************************  
Наверх