Аккорды «Grouplove»

Grouplove
Американская инди-рок группа, образованная в 2009 г. Ханной Хупер, Кристианом Дзуккони, Шоном Гэддом, Эндрю Вессеном и Райаном Рэбином. Состав группы: - Кристиан Зуккони (вокал, гитара); - Ханна Хупер (вокал, клавишные); - Эндрю Уессен (вокал, гитара); - Райан Рэбин (ударные); - Дэниел Глисон (бас-гитара); * Шон Гэдд (вокал, бас-гитара) ушёл из группы в 2015 году. Американская инди-рок группа, образованная в 2009 г. Ханной Хупер, Кристианом Дзуккони, Шоном Гэддом, Эндрю Вессеном и Райаном Рэбином. Состав группы: - Кристиан Зуккони (вокал, гитара); - Ханна Хупер (вокал, клавишные); - Эндрю Уессен (вокал, гитара); - Райан Рэбин (ударные); - Дэниел Глисон (бас-гитара); * Шон Гэдд (вокал, бас-гитара) ушёл из группы в 2015 году. Скрыть...
Популярные аккорды Grouplove:
алфавиту | просмотрам | случайно
  • Capo on 8th
    --0---------0-----------------------------------------|
    --0---------0-----------------------------------------|
    --0---------0-----------------------------------------|
    --0---x16---0--x3-------------------------------------|
    --2---------5-----------------------------------------|
    --3---------0-----------------------------------------|
    
    C…
  • D  F#  Bm  A
    I Am a man, man, man, man
    Up, up in the air
    And I run around, round, round, round 
    this down town and act like I don't care.
    So when you see me flying by the planet's moon,
    You don't need to explain if…
  • Capo on 1st fret
    
    G Em Am           G Em Am
    Aooooooooooh     Aooooooooooh
    
         G           Em  Am 
    Yeah we lay down in the sand
              G            Em    Am
    You took my clothes off with your hands
          G…
  • Capo - 1
     
    This plays during the whole song (12 string guitar?)
    E:--------------------------------------0---0--------------|
    B:-0h1-1-3-1p0--0h1-1-3-1p0-0h1-1-3-1p0---3---3---3---3----|
    G:----------------------------------------------5---5------|
    D:---------------------------------------------------------|
    A:---------------------------------------------------------|
    E:---------------------------------------------------------|
    
    
    C
    Betty's…
  • Capo fret 1
    
    G	    D
    Oh let's be friends
    Am	        D
    And we'll hold hands
    G		             D
    As those trains Go passing by
    
    G	       D
    Yeah girls are girls
    Am	     D
    All over this world
    G		    D
    But there's…
  • Capo on 6th
    Standard Tuning
     
    G         D   Em
    Yeah I step outta my little country
    G       D     Em
    I travelled seasons, took a longboat
    G       D     Em
    And now I find my self in a small town
    G      D…
  • Intro/Verses:
    e|------------------------------------------------------------------------|
    B|------------------------------------------------------------------------|
    G|------------------------------------------------------------------------|
    D|------------------------------------------------------------/9-9-8-8----|
    A|--9-9-9-9-9-9-9-9-8-8-8-6-6-6-6-6-9-9-9-9-9-9-9-9-8-8-8-6---------------|
    E|------------------------------------------------------------------------|
    
    Chorus:…
  • F#m
        Back in the '90s
                           A
    I was in a very famous TV show
    F#m
        I'm Bojack the horse [Bojack]
    
    Bojack the horse
                   A
    Don't act like you don't know
    
    
    
    Bm         E…
  • Bass-line on guitar
       C#      G#    C#      G#     F#       C#     F#      C#
    E:--------------------------------------------------------------------------------|
    B:--------------------------------------------------------------------------------|
    G:--------------------------------------------------------------------------------|
    D:--------------------------------------------------------------------------------|x2
    A:--4--4-4-4-4---------4--4-4-4-4----------------------4---4---------------4--4---|
    E:-------------6-4-6-4------------6-4-6-4--2--2-2-2-2----6---6--2--2-2-2-2---6--6-|
    
    
    Verse:
    E:-----------------------------------------------------------------|
    B:-----------------------------------------------------------------|
    G:-----------------------------------------------------------------|
    D:-----------------------------------------------------------------|
    A:-4--4-4---------4--4-4----------------4--4-4--------4--4--------|
    E:--------6--6-6---------6--6-6--2--2-2--------2--2-2--------------|
    
    
    C#…
  • (Capo 1 fret)
    
    Guitar1
    E:-----------------------------------------------------------|
    B:-3------0------2------3------3------0------2------3p2------|
    G:-2-2----0-0----2-2----2-2----2-2----0-0----2-2----2--2-----|x2
    D:----0------0------2------0------0------0------2-------2----|
    A:-----------------------------------------------------------|
    E:-----------------------------------------------------------|
    
    Guitar2
    E:---------------------------5-5---5--7---7------------------|
    B:-3---3--5---5--7---8-7-----7-7------8------15-----16p15----|
    G:-2-2----4-4----6-6-------------7------9----15--------------|
    D:-----------------------------------------------------------|
    A:-----------------------------------------------------------|
    E:-----------------------------------------------------------|
    
    D…
  • B                                  E
    Cruising on the highway with my friends, top down
               B                     E
    And we're all on our way to the beach.
         B                                       E
    And everyone…
  • Ebm C#   Bbm B
    Time moves slow [x3]
    
          Ebm   C#      F#   B
    But it's you who brought me here
    Ebm       C#     Abm   B
    You, through all these years
    
    Ebm C#   Bbm B
    Time moves slow [x2]
    
    E:-----------13--------------------------------13-------16----------------|
    B:-----14-16----16-14----14-16-----------14-16----16-14----14----16-------|
    G:--15----------------15--------------15----------------------15----------|
    D:----------------------------16------------------------------------------|
    A:------------------------------------------------------------------------|
    E:------------------------------------------------------------------------|…
  • G                          Em
    Walking down the street, man you're so bold (So bold)
    G                        Em
    Seen your mom and dad and they're so cold (So cold)
    C            Em
    Love will save your soul
    C…
  • Capo 1st Fret
    
    F
    Dim the lights, dim the lights, dim the lights, low.
    Dm
    You can come and join me, sit around the piano.
    F
    You can light the fire, open up the window,
    Dm
    You can make a choice by seeing where the…
Наверх