Аккорды Илья Орлов - Ветер

Добавлено: @romashka
Дата добавления: 03 Сентября 2018г.
Рейтинг:
0.0
Просмотров: 20
Транспонировать - +
Вступление Em  C/G G Dsus2

Em                    C/G
Откуда взялся этот день
G                       Dsus2
Пришёл неслышно, незаметно
Em                 C/G
Она спала и чья-то тень
G                        Dsus2
Шагнула в дверь осенним ветром

Am       C/G       D   G
Будешь ждать её звонков
Am7      C      D    Em
Не уйдёшь и не отпустишь
Am        C/G        D    G
Столько много скажешь слов
C/G                      B7
Столько грусти, только грусти

Припев:
Em         C/G 
Уходишь до завтра
G             Dsus2
Не увижу больше никогда
Em           C/G
Случайно, внезапно
G               Dsus2
Оставляем чувства навсегда
C               D
Твои глаза, в моих глазах
G       D       Em       D      Am
Море слёз и улыбок, печалей и грёз
D
Всё что ветер унёс

Проигрыш:
E|-----------------|-----------------|-----------------|--------10-8-7-------|
B|------0-7-8-10-8-|------0-7-8-10-8-|------0-7-8-10-8-|-------------------8-|
G|-----------------|-----------------|-----------------|--7-7----------------|
D|-----------------|-----------------|-----------------|---------------------|
A|--0--------------|-----------------|-----------------|---------------------|
E|-----------------|--8--------------|--0--------------|---------------------|

Em                 C/G
Остановился ход часов
G                  Dsus2
Ты больше времени не веришь
Em                 C/G
Закроешь сердце на засов
G                       Dsus2
Оставишь чувства жить за дверью

Am       C/G       D   G
Будешь ждать её звонков
Am7      C      D    Em
Не уйдёшь и не отпустишь
Am        C/G        D    G
Столько много скажешь слов
C/G                      B7
Столько грусти, только грусти

Припев:
Em         C/G 
Уходишь до завтра
G             Dsus2
Не увижу больше никогда
Em           C/G
Случайно, внезапно
G               Dsus2
Оставляем чувства навсегда
C               D
Твои глаза, в моих глазах
G       D       Em       D      Am
Море слёз и улыбок, печалей и грёз
D
Всё что ветер унёс

Проигрыш: x3
E|-----------------|-----------------|-----------------|--------10-8-7-------|
B|------0-7-8-10-8-|------0-7-8-10-8-|------0-7-8-10-8-|-------------------8-|
G|-----------------|-----------------|-----------------|--7-7----------------|
D|-----------------|-----------------|-----------------|---------------------|
A|--0--------------|-----------------|-----------------|---------------------|
E|-----------------|--8--------------|--0--------------|---------------------|

Аккорд Dsus2 играется с зажатой на 2 ладу 6 струной.
Аккорд CG - тот же аккорд С, только зажимаем дополнительно 6 струну на 3 ладу.
Аккорд Am7 играется с открытой первой струной.

Играется своеобразным боем.
comments powered by Disqus
Наверх