Аккорды Илья Орлов - Ветер

Добавлено: @romashka
Дата добавления: 03 Сентября 2018г.
Рейтинг:
0.0
Просмотров: 28
Транспонировать - +
Em                    C
Откуда взялся этот день
G                       D
Пришёл неслышно, незаметно
Em                 C
Она спала и чья-то тень
G                        D
Шагнула в дверь осенним ветром

Am       C       D   G
Будешь ждать её звонков
Am      C      D    Em
Не уйдёшь и не отпустишь
Am        C        D    G
Столько много скажешь слов
C                      B7
Столько грусти, только грусти

Припев:
Em         C
Уходишь до завтра
G             D
Не увижу больше никогда
Em           C
Случайно, внезапно
G              D
Оставляем чувства навсегда
C               D
Твои глаза, в моих глазах
G       D       Em       D      Am
Море слёз и улыбок, печалей и грёз
D
Всё что ветер унёс

Проигрыш:
E|-----------------------|----------------------|-----------------------|--------10-8-7---------|
B|------0-7-8-10-8-------|------0-7-8-10-8------|------0-7-8-10-8-------|-------------------8---|
G|-----------------------|----------------------|-----------------------|--7-7------------------|
D|-----------------------|----------------------|-----------------------|-----------------------|
A|--0--------------------|----------------------|-----------------------|-----------------------|
E|-----------------------|--8-------------------|--0--------------------|-----------------------|

Em                 C
Остановился ход часов
G                        D
Ты больше времени не веришь
Em                    C
Закроешь сердце на засов
G                          D
Оставишь чувства жить за дверью

Am       C       D   G
Будешь ждать её звонков
Am      C      D    Em
Не уйдёшь и не отпустишь
Am        C        D     G
Столько много скажешь слов
C                      B7
Столько грусти, только грусти

Припев:
Em         C
Прощаюсь до завтра
G             D
Не увижу больше никогда
Em           C
Случайно, внезапно
G              D
Оставляем чувства навсегда
C               D
Твои глаза, в моих глазах
G       D       Em       D      Am
Море слёз и улыбок, печалей и грёз
D
Всё что ветер унёс

Проигрыш:        
E|-----------------------|----------------------|-----------------------|--------10-8-7---------|
B|------0-7-8-10-8-------|------0-7-8-10-8------|------0-7-8-10-8-------|-------------------8---|
G|-----------------------|----------------------|-----------------------|--7-7------------------|
D|-----------------------|----------------------|-----------------------|-----------------------|
A|--0--------------------|----------------------|-----------------------|-----------------------|
E|-----------------------|--8-------------------|--0--------------------|-----------------------|

E|-----------------------|----------------------|-----------------------|--------10-8-7---------|
B|------0-7-8-10-8-------|------0-7-8-10-8------|------0-7-8-10-8-------|-------------------8---|
G|-----------------------|----------------------|-----------------------|--7-7------------------|
D|-----------------------|----------------------|-----------------------|-----------------------|
A|--0--------------------|----------------------|-----------------------|-----------------------|
E|-----------------------|--8-------------------|--0--------------------|-----------------------|

E|-----------------------|----------------------|-----------------------|--------10-8-7---------|
B|------0-7-8-10-8-------|------0-7-8-10-8------|------0-7-8-10-8-------|-------------------8---|
G|-----------------------|----------------------|-----------------------|--7-7------------------|
D|-----------------------|----------------------|-----------------------|-----------------------|
A|--0--------------------|----------------------|-----------------------|-----------------------|
E|-----------------------|--8-------------------|--0--------------------|-----------------------|

E|------------------7---|----------------10---|------------------7----|---------------------|
B|------0-7-8-10--------|-----0-7-8-10--------|------0-7-8-10---------|----0-7-8------------|
G|----------------------|---------------------|-----------------------|---------------------|
D|----------------------|---------------------|-----------------------|---------------------|
A|--0-------------------|---------------------|-----------------------|---------------------|
E|----------------------|--8------------------|--0--------------------|---------------------|
comments powered by Disqus
Наверх