Аккорды Константин Ступин - Машины

Добавлено: @romashka
Дата добавления: 02 Мая 2018г.
Рейтинг:
0.0
Просмотров: 29
Транспонировать - +
Проигрыш и ритмический рисунок для аккорда E5 играется так 
4:------------------------------ 
5:--2-2-------------------------
6:--0-0---3-слайд-5---6-6---5-3-
Для аккорда A5 тоже самое, только на струнах 4 и 5.

E5 | E5 
Кругом одни машины! 
E5 | E5  
Кругом одни моторы! 
A5 | A5  
А ты - моя машина! 
E5 | E5  
И я тобой доволен! 

B5 | A#5 A5 | E5 | E5 B5  

После аккорда A5 Ступин играет такую фразу:
4:----------5----------
5:-5-6-7-----7---6---5-
6:---------------------

Причем первые три ноты играются быстрым легато 

E5 | E5 
И пусть ты не авто, 
E5 | E5 
Зато не жрёшь бензина, 
Твой ход идёт легко, 
E5 | E5 
И поршень из резины! 

Проигрыш и ритмический рисунок для аккорда E5 играется так 
4:------------------------------ 
5:--2-2-------------------------
6:--0-0---3-слайд-5---6-6---5-3-
Для аккорда A5 тоже самое, только на струнах 4 и 5.

E5 | E5 
Кругом одни машины! 
E5 | E5 
Кругом одни моторы! 
E5 | E5 
А ты - моя машина! 
E5 | E5 
И я тобой доволен!

В общем то, простой блюзовый квадрат 
E5 | E5 | E5 | E5 | 
A5 | A5 | E5 | E5 | 
B5 | A5 | E5 | E5 B5 (Ступин переход к А5 делает через А#5)
comments powered by Disqus
Наверх