Аккорды Константин Ступин - Если в кране нет воды

Добавлено: @romashka
Дата добавления: 16 Мая 2018г.
Рейтинг:
0.0
Просмотров: 22
Транспонировать - +
Вступление
E|1|--------------------------------------------------------------------|
B|2|--------------------------------------------------------------------|
G|3|--------------------------------------------------------------------|
D|4|-----2-----------------0-------0-------2----------------0-------0---|
A|5|---2---2--3-2--------2---2---0---0---2---2------------2---2---0---0-|
E|6|-0-------------0-2-3-------2-------0--------3-2-0-2-3-------2-------|

Играется на вступлении:

Если в кране нет воды - возьми ведро,
Поссы в него и вскипяти,
С холерой не шути, ля-ля-ляяяя-ля-ля-ля

E5            G5    F#5
На днях соседка приползла, со слезами на глазах
E5            G5    F#5
Её трёхмесячная дочь, сегодня умерла
E5            G5    F#5
Когда я морил клопов
E5            G5    F#5
Когда я морил клопооооооооов

Проигрыш: E5 G5 F#5 }x2

E5            G5    F#5
Сантехник был хорошим мужиком,как жаль что часто пил
E5            G5    F#5
Проклятый газ его убил,
E5            G5    F#5
Когда я трубу пилил!
E5            G5    F#5
О, сколько здесь могил!

E5            G5    F#5
О, сколько здесь могил...

E5 G5 F#5

И снова вступление:
E|1|--------------------------------------------------------------------|
B|2|--------------------------------------------------------------------|
G|3|--------------------------------------------------------------------|
D|4|-----2-----------------0-------0-------2----------------0-------0---|
A|5|---2---2--3-2--------2---2---0---0---2---2------------2---2---0---0-|
E|6|-0-------------0-2-3-------2-------0--------3-2-0-2-3-------2-------|

В куплете и проигрыше: E5 - 8 ударов подряд, G5 и F#5 - 4 удара подряд.
comments powered by Disqus
Наверх