Аккорды Константин Ступин - Смерть

Добавлено: @romashka
Дата добавления: 28 Апреля 2019г.
Рейтинг:
0.0
Просмотров: 112
Транспонировать - +
Вступление:
  Asus2   Am      C       Em
e|---------------------------------|
B|-------------1-------------------|
G|-----2---------------0-------0---|
D|---2---2---2-------2---2---2---2-|
A|-0-------0-------3-------2-------|
E|---------------------------------|

Куплет 1:
  Asus2 Am          C         Em                     
Смерть как выздоровление больного
  Asus2 Am      C     Em             
Смерть как исцеление боли
  Asus2 Am        C     Em                     
Смерть как возрождение жизни
  Asus2    Am     C       Em   
Смерть как отдых после работы

Припев: 
 Asus2 Am  Asus2 Am        
Смерть свобода!

  C       Em
e|---------------|
B|---------------|
G|----0-------0--|
D|--2---2---2----|
A|3-------2------|
E|---------------|

Проигрыш: Asus2 Am  Asus2 Am        

  C       Em
e|---------------|
B|---------------|
G|-----0-------0-|
D|---2---2---2---|
A|-3-------2-----|
E|---------------|

Куплет 2:
  Asus2 Am    C           Em                       
Смерть как источник в пустыне
  Asus2 Am     C    Em  
Смерть как тепло любимой
  Asus2 Am      C     Em  
Смерть как дворцы бездомным
  Asus2 Am   C     Em  
Смерть как хлеб голодным

Припев: 
 Asus2 Am  Asus2 Am        
Смерть свобода!

  C       Em
e|---------------|
B|---------------|
G|----0-------0--|
D|--2---2---2----|
A|3-------2------|
E|---------------|

Проигрыш: Asus2 Am  Asus2 Am        

  C       Em
e|---------------|
B|---------------|
G|-----0-------0-|
D|---2---2---2---|
A|-3-------2-----|
E|---------------|

Куплет 3:
   Asus2 Am    C       Em                    
Смерть как свеча в темнице
  Asus2 Am   C     Em                  
Смерть как крылья птице
  Asus2 Am    C      Em                 
Смерть как молоко ребенку
  Asus2 Am    C    Em                 
Смерть как добыча волку

Припев: 
 Asus2 Am  Asus2 Am        
Смерть свобода!

  C       Em
e|---------------|
B|---------------|
G|----0-------0--|
D|--2---2---2----|
A|3-------2------|
E|---------------|

Проигрыш: Asus2 Am  Asus2 Am        

  C       Em
e|---------------|
B|---------------|
G|-----0-------0-|
D|---2---2---2---|
A|-3-------2-----|
E|---------------|

Куплет 4:
  Asus2     C     Em                
Смерть как запах мяты
  Asus2        C         Em                       
Смерть как прощение виноватому
  Asus2       C      Em                  
Смерть как дорога к дому
  Asus2     C          Em                   
Смерть как радость родному

Припев: 
 Asus2 Am  Asus2 Am        
Смерть свобода!

  C       Em
e|---------------|
B|---------------|
G|----0-------0--|
D|--2---2---2----|
A|3-------2------|
E|---------------|

Проигрыш: Asus2 Am  Asus2 Am        

  C       Em
e|---------------|
B|---------------|
G|-----0-------0-|
D|---2---2---2---|
A|-3-------2-----|
E|---------------|

Куплет 5: 
  Asus2       C        Em                    
Смерть как невольнику воля
  Asus2       C     Em                
Смерть как забытое горе
  Asus2        C     Em                  
Смерть как слепому зрение
  Asus2     C      Em                 
Смерть как сердцу биение
  
Припев: 
 Asus2 Am  Asus2 Am        
Смерть свобода!

  C       Em
e|---------------|
B|---------------|
G|----0-------0--|
D|--2---2---2----|
A|3-------2------|
E|---------------|

Проигрыш: Asus2 Am  Asus2 Am        

  C       Em
e|---------------|
B|---------------|
G|-----0-------0-|
D|---2---2---2---|
A|-3-------2-----|
E|---------------|

Куплет 6:  
  Asus2      C         Em                  
Смерть как сладостный сон
  Asus2         C        Em                      
Смерть как колокольный звон
  Asus2      C   Em                
Смерть как вкус мёда
  Asus2           C     Em                    
Смерть как продолжение рода
    
Припев: 
 Asus2 Am  Asus2 Am        
Смерть свобода!

  C       Em
e|---------------|
B|---------------|
G|----0-------0--|
D|--2---2---2----|
A|3-------2------|
E|---------------|

Проигрыш: Asus2 Am  Asus2 Am        

  C       Em
e|---------------|
B|---------------|
G|-----0-------0-|
D|---2---2---2---|
A|-3-------2-----|
E|---------------|

Куплет 7:  
  Asus2        C       Em                      
Смерть как наследство батюшки
  Asus2     C    Em                  
Смерть как воля матушки
  Asus2         C        Em                      
Смерть как невезучему везение
 Asus2       C           Em                      
День смерти как день рождения
       
Припев: x4
 Asus2 Am  Asus2 Am        
Смерть свобода!

  C       Em
e|---------------|
B|---------------|
G|----0-------0--|
D|--2---2---2----|
A|3-------2------|
E|---------------|

Проигрыш: Asus2 Am  Asus2 Am        

  C       Em
e|---------------|
B|---------------|
G|-----0-------0-|
D|---2---2---2---|
A|-3-------2-----|
E|---------------|

1,2,3 куплет играются перебором как во вступлении.
В куплетах после 3-го Am добавляется опционально после Asus2.
comments powered by Disqus
Наверх