Аккорды Леонид Фёдоров - Всё вертится

Добавлено: @romashka
Дата добавления: 30 Августа 2020г.
Рейтинг:
0.0
Просмотров: 36
Транспонировать - +
Вступление (только на Птице):
A C D A C D A C D A C D

(В конце поётся "А-а-а!!!" и на концертах играется такое соло:
    A   C       D (последний аккорд рывками)
E|-5----3-0-|

Проигрыш:
    G     D    Em            G     D    Em
G|-0-4-0-2--4-2p0---2p0---|-0-4-0-2--4-2p0------|
D|----------------2-----2-|----------------2--2-|

    C   G   C G D   C   G   C D
E|---0---3-------|---0---3-------------------------|
B|-1---3---1-----|-1---3---1-0-3--1-0---0-3--1-0---|
G|-----------4-2-|--------------------2----------2-|

 G      D       Em            D      G
Солнце ночь проводит там где месяц бродит
         D     Em       D     G
Мертвый жил у леса а теперь уходит

         C
 День хорош
        Em
 Мир хорош
         C
 Все найдёшь
          Em
 Все возьмёшь

 Все вертится! (проорать без аккордов)

Проигрыш:
    G     D    Em            G     D    Em
G|-0-4-0-2--4-2p0---2p0---|-0-4-0-2--4-2p0------|
D|----------------2-----2-|----------------2--2-|

    C   G   C G D   C   G   C D
E|---0---3-------|---0---3-------------------------|
B|-1---3---1-----|-1---3---1-0-3--1-0---0-3--1-0---|
G|-----------4-2-|--------------------2----------2-|

 G      D       Em            D      G
Мертвый смотрит строго впереди так много
         D     Em       D     G
Всех кого не стало собрались в дорогу

         C
 День хорош
         Em
 Мир хорош
         C
 Все найдёшь
         Em
 Все возьмёшь
              G D Em D G D Em D G D - много раз
 Все вертится а--а----...

(потом)
 C       G D
 О-о-о-о...

(табы под это дело:)
    C        G     D
E|-------3----------|
B|-5-4-3----0-3-----|
G|--------------4-2-|

Проигрыш:
    G     D    Em            G     D    Em
G|-0-4-0-2--4-2p0---2p0---|-0-4-0-2--4-2p0------|
D|----------------2-----2-|----------------2--2-|

    C   G   C G D   C   G   C D
E|---0---3-------|---0---3-------------------------|
B|-1---3---1-----|-1---3---1-0-3--1-0---0-3--1-0---|
G|-----------4-2-|--------------------2----------2-|

 G      D       Em            D      G
Он со мной простился, он землей умылся
         D     Em       D     G
И ушел по лесу, он такой родился

         C
 День хорош
         Em
 Мир хорош
         C
 Все найдёшь
         Em
 Все возьмёшь
           D
 Все вертится-а-а-а
             Em
 Все вертится и-и-и
            D
 Летят журавли
             Em
 Кричат журавли
                D
 Дождались дождались
              Em
 Повезло повезло
           D
 Все вертится-а-а-а
             Em
 Все вертится о-о-о-о-о-о-о!!!!

(На Птице финал как вступление): A C D A C D A C D A C D

(На акустике идёт первая часть проигрыша):
    G     D    Em            G     D    Em
G|-0-4-0-2--4-2p0---2p0---|-0-4-0-2--4-2p0------|
D|----------------2-----2-|----------------2--2-|

Аккорды:
A:  x-7-7-6-5-5
C:  x-3-5-5-5-3
D:  x-5-7-7-7-5 (на вступлении)
G:  3-2-0-0-3-x или 3-2-0-4-3-x
D:  2-0-0-2-3-x или x-0-0-2-3-2
Em: 0-2-2-0-0-x
Наверх