Аккорды Lindemann - Gummi

Добавлено: @romashka
Дата добавления: 13 Февраля 2021г.
Рейтинг:
0.0
Просмотров: 51
Транспонировать - +
F#5 F#5/G x2

F#5 F#5 / G5 / F#5 F#5 F#5 / G5 F#5  E5 G5 x4
2:--7-7-7------------------------7-7-7---------------------------
3:-------6-6-6-7-7-7-4-4-4-6-6-6------6-6-6-7-7-7-9-9-9-12-12-12-  х2

F#5                              E5
Jetzt und hier will ich bekennen
F#5                       E5 / G5
Eine kleine Leidenschaft
F#5                              E5
Man konnte es auch Fetisch nennen
F#5                            E5 / G5
Kam ganz plotzlich, uber Nacht

C5                  B5          G5 / E5
Ich fass' mich an, das fasst sich gut an
C5                  B5          G5 / E5
Fass' mich an, das fasst sich schon an
C5                  B5        G5 / E5
Schaut mich an, ja, das schaut gut aus
 G5                F#5                 E5
Ich lass' es an, ich zieh' das nie mehr aus

F#5                           E5
Muss mich standig daran reiben               E5 G5
                              2:--7-7-7------------------------
F#5                           3:-------6-6-6-7-7-7-4-4-4-6-6-6-                         
Will mich immer damit kleiden
F#5                           E5
Kriecht in Falten, jede Ritze                          E5 / G5
                                        2:--7-7-7------------------------------
F#5                                     3:-------6-6-6-7-7-7-9-9-9-12-12-12-11-
Und fuhlt sich geil an, wenn ich schwitze

C5                  B5          G5 / E5
Ich fass' mich an, das fasst sich gut an
C5                  B5          G5 / E5
Fass' mich an, das fasst sich schon an
C5                  B5        G5 / E5
Schaut mich an, ja, das schaut gut aus
 G5                F#5                 E5
Ich lass' es an, ich zieh' das nie mehr aus

F#5 F#5 / G5 / F#5 F#5 F#5 / G5 / F#5 E5 / G5  x2
2:--7-7-7------------------------7-7-7----------------------------
3:-------6-6-6-7-7-7-4-4-4-6-6-6------6-6-6-7-7-7-9-9-9-12-12-12--  х2
  
                               2:--7-7-7------------------------
                               3:-------6-6-6-7-7-7-4-4-4-6-6-6- 
Darf ich heute bei dir bleiben?
                                2:--7-7-7------------------------------
                                3:-------6-6-6-7-7-7-9-9-9-12-12-12-11-
Platte Korper, die sich reiben
6:--2-2-2/5-2-2-2/5--
Und ein Verlangen macht sich Luft
Die zweite Haut hat ihren Duft
F#5   
Gummirochen, Gummihose
F#5
Gummimaske, Gummischlauch
F#5
Gummibander, fest und los'
F#5
Unter meinem Bauch

C5                  B5          G5 / E5
Ich fass' mich an, das fasst sich gut an
C5                  B5     G5 / E5
Fuhle mich, das fasst sich geil an
C5                  B5      G5 / E5
Beruhre mich, ja, das ist wunderbar
G5              F#5                 E5
Schaut mich an, ich seh' fantastisch aus, ja
G5                F#5                    E5
Ich lass' das an, ich zieh' das nie mehr aus
G5              F#5          E5
Nein, ich zieh' das nie mehr aus

F#5 F#5 / G5 / F#5 F#5 F#5 / G5 / F#5 E5 / G5  x4
2:--7-7-7------------------------7-7-7---------------------------
3:-------6-6-6-7-7-7-4-4-4-6-6-6------6-6-6-7-7-7-9-9-9-12-12-12-  х2
Gummimenschen, Gummireifen
Gummi, schutzt nur meinen Steifen
Gummimann auf allen Vieren
Gummimantel, Gummitiere
Ich liebe.. 
F#5
Gummihande auf dem Bauch
Gummimmasse, Gummischlauch
Gummibander, fest und lose
Gummirock und Gummihose
Ich liebe Gummi, Gummi, Gummi, Gummi
Наверх