Аккорды Low Roar - In The Morning

Добавлено: @romashka
Дата добавления: 03 Августа 2018г.
Рейтинг:
0.0
Просмотров: 16
Транспонировать - +
Intro:
e||---------------------------------| x4
b||---2-------2-------2-------2-----|
g||-------2-------2-------2-------2-|
d||-----2---2---2---2---2---2---2---|
a||-0-------------------------------|
E||---------------------------------|

Verse:

    A
e||---------------------------------|
b||---2-------2-------2-------2-----|
g||-------2-------2-------2-------2-|
d||-----2---2---2-------2---2---2---|
a||-0---------------0---------------|
E||---------------------------------|

    F#m
e||---------------------------------|
b||---2-------2-------2-------2-----|
g||-------2-------2-------2-------2-|
d||-----4---4---4-------4---4---4---|
a||-4---------------4---------------|
E||---------------------------------|

    D
e||---2-------2-------2-------2-----|
b||-------3-------3-------3-------3-|
g||-----2---2---2-------2---2---2---|
d||-0---------------0---------------|
a||---------------------------------|
E||---------------------------------|


A                      A
Let me in,             if not I'll wait here.
A                      A
What fears me most,    keeps my heart near.
A                      A
So peak your head      from beyond the curtains.
A                      A
The sky will stretch   as far as you let it.
                  F#m                 D
And I want you to know, I need you to know,
                             A(to finish)
I love you so much more each morning.
comments powered by Disqus
Наверх