Аккорды Manchester Orchestra - The Gold

Добавлено: @romashka
Дата добавления: 10 Февраля 2024г.
Рейтинг:
0.0
Просмотров: 102
Intro/Riff 
x2

eb|---------------------------------------------------------------------------|
Bb|---------------------------------------------------------------------------|
Gb|-----------------------------------------3-------3-------------------------|
Db|---3/5--5--5-5\3p1p0------------0------0---0---1---1-----------------------|
Ab|----------------------3p1-----1---1--1-------1-----------------------------|
Eb|----------------------------3----------------------------------------------|

Verse 1 
rest to start then play 

eb|---------------------------------------------------------------------------|
Bb|---------------------------------------------------------------------------|
Gb|---------0-------0-------3-------0-------0-------3-------------------------|
Db|-------1---1---0---0---0---0---1---1---0---0---0---------------------------|
Ab|-----1-------1-------1-------1-------1-------1-----------------------------|
Eb|---------------------------------------------------------------------------|

Pre-Chorus


eb|---------------------------------------------------------------------------|
Bb|---------------------------------------------------------------------------|
Gb|--8--------------8----8----10---------8------------------------------------|
Db|--8----5----8----8----8----10----8----8------------------------------------|
Ab|--6----5----8----6----6----8-----8----6------------------------------------|
Eb|-------3----6--------------------6-----------------------------------------|

Chorus 1 
rest

Repeat Intro riff

eb|---------------------------------------------------------------------------|
Bb|---------------------------------------------------------------------------|
Gb|-----------------------------------------3-------3-------------------------|
Db|---3/5--5--5-5\3p1p0------------0------0---0---1---1-----------------------|
Ab|----------------------3p1-----1---1--1-------1-----------------------------|
Eb|----------------------------3----------------------------------------------|

Verse 2 rest and then this little diddy

eb|---------------------------------------------------------------------------|
Bb|---------------------------------------------------------------------------|
Gb|---------------------------------------------------------------------------|
Db|---5\3p1p0-----------------------------------------------------------------|
Ab|----------3p1-------1------------------------------------------------------|
Eb|-------------3-------------------------------------------------------------|

Pre-Chorus 
[softer]

eb|---------------------------------------------------------------------------|
Bb|---------------------------------------------------------------------------|
Gb|--8--------------8----8----10---------8------------------------------------|
Db|--8----5----8----8----8----10----8----8------------------------------------|
Ab|--6----5----8----6----6----8-----8----6------------------------------------|
Eb|-------3----6--------------------6-----------------------------------------|

Chorus 2

eb|-------15------15------13------15------------------------------------------|
Bb|-----16--16--15--15--15--15--16--16----------------------------------------|
Gb|---15------15------15------15----------------------------------------------|
Db|---------------------------------------------------------------------------|
Ab|---------------------------------------------------------------------------|
Eb|---------------------------------------------------------------------------|


Bridge
[only play the third chord as an arpeggio the first time] 

eb|----15----17-------13-----15-----------------------------------------------|
Bb|----16----18-----15--15---16-----------------------------------------------|
Gb|----15----17---15---------15-----------------------------------------------|
Db|---------------------------------------------------------------------------|
Ab|---------------------------------------------------------------------------|
Eb|---------------------------------------------------------------------------|

Chorus 3

eb|-------15------15------13------15------------------------------------------|
Bb|-----16--16--15--15--15--15--16--16----------------------------------------|
Gb|---15------15------15------15----------------------------------------------|
Db|---------------------------------------------------------------------------|
Ab|---------------------------------------------------------------------------|
Eb|---------------------------------------------------------------------------|

Outro


eb|---------------------------------------------------------------------------|
Bb|---------------------------------------------------------------------------|
Gb|-----------------------------------------3-------3-------------------------|
Db|---3/5--5--5-5\3p1p0------------0------0---0---1---1-----------------------|
Ab|----------------------3p1-----1---1--1-------1-----------------------------|
Eb|----------------------------3----------------------------------------------|

Guitar 2
The lead singer is playing chords tuned half a step down capo 3 


eb|---0----0----3----0---|
Bb|---1----0----3----3---|
Gb|---0----0----0----0---|
Db|---2----2----0----4---|
Ab|---3----2----2----5---|
Eb|--------0----3--------|


Intro
C Em G C

Verse 1 [First 2 times through just kayboard]
this part has a cool feel to it, just listen to the song to feel the timing
C Em G

Pre-Chorus 1
C Em G C
C D G C

Chorus 1
C Em G C

Intro Revisted
C Em G C

Verse 2 [First 2 times through just kayboard]
this part has a cool feel to it, just listen to the song to feel the timing
C Em G

Pre-Chorus 2
C Em G C
C D G C

Chorus 2
C Em G C

Bridge
Before Singing starts he plays this riff then he just plays the chords
C D G C

eb|---------------------------------------------------------------------------|
Bb|---------------------------------------------------------------------------|
Gb|---------0-----0-----------------0-----------------------------------------|
Db|-----0-2-----4---4-------0---0-2-------------------------------------------|
Ab|---3-------5---------0-2---3-----------------------------------------------|
Eb|-------------------3-------------------------------------------------------|

Chorus 3
C Em G C

Outro
C Em G C


************************************

| x   Dead note
| g   Grace note
| (n) Ghost note
| h   Hammer-on
| p   Pull-off
| r   Release
| >   Accented note
| t   Tapping
| b   Bend
| br  Bend release
| pb  Pre-bend
| pbr Pre-bend release
| /   Slide up
| \   Slide down
| ~   Vibrato
| s   Slap
| P   Pop
| PM  Palm mute
| TR  Trill
| N   Tremolo

************************************  
Музыка дает душу вселенной, крылья разуму, полет воображению и жизнь всему (Платон)
Мы стремимся к созданию контента, соответствующего всем нормам законодательства и уважающего интеллектуальную собственность. Мы также придаем большое значение тому, чтобы не задеть никого и не оскорбить чьи-либо чувства. Если у вас есть вопросы или претензии по размещенному материалу, пожалуйста, сообщите нам об этом.
Шрифт
-
0
+
Прокрутка
-
0
+
Стоп
Наверх