Аккорды Настя - С тобой, но без тебя

Добавлено: @romashka
Дата добавления: 24 Января 2022г.
Рейтинг:
0.0
Просмотров: 40
Транспонировать - +
Интродукция:
    Em                   Em                    Dsus2     Cmaj7        Em
E|----2-----------0---|----2-----------0---||-------0---------0-----|----2-----------0---||
B|------1---------0---|------1---------0---||-------3---------0-----|------1---------0---||
G|----------------0---|----------------0---||*------2---------0-----|----------------0--*||
D|--------2-------2---|--------2-------2---||*--0h2---2-----2---2---|--------2-------2--*||
A|----------------2---|----------------2---||-------------3---------|----------------2---||
E|--0---------0-0-0---|--0---------0-0-0---||-----------------------|--0---------0-0-0---||

Em7           Em     Em7 Em
Как поет, как звучит колокол,
Em7       Em       Em7     Em
Остывая в висках литым золотом.
Dsus2  Cmaj7   Dsus2     Em
Я у подножья безумной мечты.
      Dsus2      Cmaj7  Dsus2  Em
Все готово к подъему, готов ли ты?

Em7             Em      Em7      Em
Все со мной, ты во мне, в добрый путь.
Em7            Em     Em7    Em
Не солгать, не сойти, не свернуть.
Dsus2        Cmaj7 Dsus2   Em
Вверх, где начала каждой реки.
    Dsus2   Cmaj7   Dsus2       Em
Ах, если бы снегом упасть с высоты.

  Asus2        Cmaj7       Dsus2  Em
  Ни ступеней, ни уступов, помоги мне.

  Asus2  Cmaj7  Dsus2  Em

   E       Esus4    E           Esus4
Скала бесконечна, а пропасть бездонна
  E          E7    E
И скалит раскрытую пасть.
E                 Esus4    E       Esus4
Без тебя, как без рук по отвесному склону,
     E           E7      E
Отпустить тебя — значит упасть.

Cmaj7    Dsus2      Em
Все, взбираться нет сил,
Cmaj7       Dsus2    Em
Этот путь меня не свалил.
Cmaj7      Dsus2          Em
Вот теперь я сниму с тебя сеть,
Cmaj7           Dsus2   E
Развяжи крылья, нужно лететь.

  Asus2         Cmaj7        Dsus2     Em
  Без ступеней, без уступов, навсегда.
  Asus2          Cmaj7       Dsus2    Em
  Ты сойдешь с меня, словно, словно вода,
  Asus2        Cmaj7        Dsus2   Em
  Возвратишься на равнину с новой рекой.
  Asus2     Cmaj7   Dsus2    Em
  Не лови меня ты холодной рукой.

  Asus2  Cmaj7  Dsus2  Em — четыре раза

[Кода]:
    E         Esus4         E         E7    несколько раз
E|-----------------------|------------------||
B|--5---5-5/7-7---7-7/9--|--9--10--9--5-----||
G|----4---------4--------|-----------------*||
D|-----------------------|-----------------*||
A|-----------------------|------------------||
E|-----------------------|------------------|| 

Песня довольно сложная для пения, поэтому аккорды подобраны так, чтобы звучало похоже под любой ровный трехдольный бой.
Например, подойдёт ↓↑↓↑↓↑.
Если можете это спеть, одновременно играя что-то более сложное, можно подобрать перебор на основе интродукции.

Аккорды для этого подбора:
    Em7    Dsus2   Cmaj7   Asus2   Esus4     E7
E|---X---|---0---|---0---|---0---|---0---|---0---|
B|---3---|---3---|---0---|---0---|---0---|---0---|
G|---0---|---2---|---0---|---2---|---2---|---1---|
D|---2---|---0---|---2---|---2---|---2---|---0---|
A|---2---|---X---|---3---|---0---|---2---|---2---|
E|---0---|---X---|---X---|---X---|---0---|---0---|
Наверх