Аккорды Настя - Снежные волки

Добавлено: @romashka
Дата добавления: 24 Января 2022г.
Рейтинг:
0.0
Просмотров: 35
Транспонировать - +
[Интродукция, куплеты 1 и 2:]
     Am               Dm             G                C      E
E||----------------|--------------|----------------|---------0----|
B||--------0-------|--------------|--------0-------|--1------0----|
G||-----------0----|--------5-----|-----------0----|--0------1----|
D||-----2----------|-----3--------|-----0----------|--2------2----|
A||--0-------------|--0-----------|----------------|--3------2----|
E||----------------|--------------|--3-------------|---------0----|

Am            Dm
Утром снежным белые волки
G                      C      E
С утренним снегом, как беглые толки,
Am                 Dm
Выбегут в поле, следы разбросают,
G                     C         E
Набегавшись вволю, бесследно растают.

Am             Dm
Что вы ищете в выпавшем снеге?
G                 C      E
Вам противен вкус нашего хлеба.
Am               Dm
Вас гонит в зиму запах добычи,
G               C       E
Крови медвежьей и крови бычьей.

Am          Dm
Вы холодные снежные звери.
Am          Dm
Неисчислимы ваши потери:
Am              Dm
Гибнете сотнями в солнечном свете,
Am                     Dm
Ведь жизнь ваша длится лишь до рассвета.

G                Dm
Жутким плачем расколется ночь –
C                 A
Все, никто мне не сможет помочь!
G                   Dm
Застынет под окнами бешеный вой –
C                     A
Это снежные волки пришли за мной.

[Куплеты 5 и 6:]
     Dm               Gm             C                F       A
E||--------0-------|--------1-----|--------0-------|--1------0----|
B||-----------1----|--------------|-----------1----|--1------2----|
G||-----2----------|-----3--------|-----0----------|--2------2----|
D||--0-------------|--0-----------|----------------|--3------2----|
A||----------------|--------------|--3-------------|---------0----|
E||----------------|--------------|----------------|--------------|

Dm                Gm
Лишь рассветет, и белые кости
C                        F      A
Под сахарным снегом, как тонкие трости,
Dm                  Gm
Вырастут в поле под музыку вьюги,
C                F         A
Их не разыщут ни волки, ни люди.

Dm            Gm
Утром снежным белые волки
C                      F      A
С утренним снегом, как беглые толки,
Dm                 Gm
Выбегут в поле, следы разметают,
C                    F       A
Не найдя ничего, все тают их стаи. 

A             Dm
Тают, тают… 

Для куплетов 1, 2, 5 и 6 способ игры указан в табах. Куплеты 3 и 4 играются боем ↓ ↓↑↓↑ (первый удар в два раза длиннее остальных четырех).
Для финального аккорда вместо Dm можно сыграть по такому табу:
E||--3-------|
B||--3--3----|
G||--2-------|
D||--0-------|
A||----------|
E||----------|
Наверх