Аккорды Перемотка - Вечный путь

Добавлено: @romashka
Дата добавления: 25 Сентября 2021г.
Рейтинг:
0.0
Просмотров: 49
Транспонировать - +
Вся песня: F#m E C#m D A

1---------------------------
2-22320-00020---------------
3------------2-22421-1121---  4р.
4------------------------4--

F#m            E
Жить в окопах, но
              C#m
Я предпочел бы смерть.
           D
Пулей от мечты.
 A
Жить пылать сгореть.

Жить в окопах, но
Я предпочел бежать
Зверем на врага
Пасть но в миг вставать.

Жить в окопах, но
Я видел как гниют
Порывы тех людей
Решивших сдаться тут.

Игра с свободой нас
Пытаясь обмануть
Ушла в окопы, но
Я выбрал вечный путь.

1---------------------------
2-22320-00020---------------
3------------2-22421-1121---  2р.
4------------------------4--

Я выбрал вечный путь.
Я выбрал вечный путь.

Не убегай в ночи,
Не ставь от чувства след.
Скрывайся и таи
Как завещал поэт.

Надежду вынь и брось,
Что вряд ли нас поймут
Умы пропавших лет.
Что праздно здесь живут.

Я плыву в ночи,
Со мной луна одна
Она как я молчит,
Она как я жива.

Холодный ветер стих.
Сегодня не уснуть
Пусть спят другие, но
Я выбрал вечный путь.

1---------------------------
2-22320-00020---------------
3------------2-22421-1121---  2р.
4------------------------4--

Я выбрал вечный путь.
Я выбрал вечный путь.

1---------------------------
2-22320-00020---------------
3------------2-22421-1121---  2р.
4------------------------4--

Жить в окопах но,
Мы предпочли идти
Искать рассвета луч
И ореол мечты

И солнце по весне,
Успело нам сверкнуть
Вдыхай поглубже друг
Нас ждет бескрайний путь.

1----------------------------------------------------------------------------
2-12--12-12-12--10-7-5--5--12-12-12-10-7--12--12-12-12--10-7-5--5-5--7--7-7--  4р.
3----------------------------------------------------------------------------

1--------------------------------------------
2-7--14-14--12-10-9----7--14-14--12-10-9--7--  4р.
3--------------------------------------------

1---------------------------
2-22320-00020---------------
3------------2-22421-1121---  4р.
4------------------------4--
Наверх