Аккорды Песни из кинофильмов - Дорога цветов (из кинофильма "Каникулы строгого режима")

Добавлено: @romashka
Дата добавления: 26 Октября 2019г.
Рейтинг:
0.0
Просмотров: 19
Транспонировать - +
Основной рифф:
e|-3---2---3-------3---------------------------------
B|---------------3---3-----------------1-------------
G|------------0---------0-----------0-----0----------
D|---------2---------------------2-----------2-------
A|----------------------------3--------------------2-
E|-------------------------------------------------3-

e|----------------------2-----0--2--3-------3--------
B|-------0--1--3-----3-----3--------------3---3------
G|----0-----------2--------------------0---------0---
D|-0--------------0-----------------2----------------
A|---------------------------------------------------
E|---------------------------------------------------

e|--------------------------------3----3/5--7--5-----
B|----------1----------------------------------7-----
G|-------0-----0--------------0----------------7-----
D|----2-----------2--------0-------------------0-----
A|-3--------------------2----------------------------
E----------------------3-----------------------------

e|--3----2---3-------3---------------------------
B|-----------------3---3----------------1--------
G|--------------0---------0----------0-----0-----
D|-----------2--------------------2-----------2--
A|-----------------------------3-----------------
E|-----------------------------------------------

e|---------------------------2---------------------------
B|-----------0--1--3------3-----------------------0------
G|--------0-----------2----------2p0------------0---0----
D|-----0--------------0----------------4--2--2---------2-
A|--2----------------------------------------------------
E|-3-------------------------------------0---------------

e|----------------------------------------------2----2--3-
B|------------1------------------0--1--3------3---3-------
G|----------0---0-------------0------------2--------------
D|-------2---------2-------0---------------0--------------
A|----3-----------------2---------------------------------
E|---------------------3-------------------------------3--

2p0-соскок с 3 струны при ее зажатии на грифе гитары (в левой руке-у правшей,в правой-у левшей).
comments powered by Disqus
Наверх