Аккорды Песни из кинофильмов - Main theme (OST "Westworld")

Добавлено: @romashka
Дата добавления: 29 Августа 2022г.
Рейтинг:
0.0
Просмотров: 31
Транспонировать - +
[Intro] 
       Am           F 
e|------------|------------| 
B|------------|------------| 
G|-----2------|------------| 
D|------------|-----3------| 
A|-----0------|------------| 
E|------------|-----1------| 
  
[Part 1] 
   Am                        F 
e|-------------------0-----|-------------------------| 
B|-------1-----3-----------|-------------------------| 
G|-2---2-----2-----2-----2-|-2-----2-----2-----2-----| 
D|---2-----2-----2-----2---|---2-----2-----2-----2---| 
A|-0-----0-----0-----0-----|-----3-----3-----3-----3-| 
E|-------------------------|-1-----1-----1-----1-----| 
  
   Am                        F 
e|-------0-----------------|-------------------------| 
B|-------------3-----1-----|-------------------------| 
G|-2---2-----2-----2-----2-|-2-----2-----2-----2-----| 
D|---2-----2-----2-----2---|---2-----2-----2-----2---| 
A|-0-----0-----0-----0-----|-----3-----3-----3-----3-| 
E|-------------------------|-1-----1-----1-----1-----| 
 
   Am                        Em 
e|-------------------0-----|-------------------------| 
B|-------1-----3-----------|-------------------------| 
G|-2---2-----2-----2-----2-|-0-----0-----0-----0-----| 
D|---2-----2-----2-----2---|---2-----2-----2-----2---| 
A|-0-----0-----0-----0-----|-----2-----2-----2-----2-| 
E|-------------------------|-0-----0-----0-----0-----| 
 
   Bb                        A5 
e|-------1-----0-----------|-0-----------------------| 
B|-------------------3-----|-------------------------| 
G|-3---3-----3-----3-----3-|-2-----2-----2-----2-----| 
D|---3-----3-----3-----3---|---2-----2-----2-----2---| 
A|-1-----1-----1-----1-----|-0---3-0---3-0---3-0---3-| 
E|-------------------------|-------------------------| 
 
[Part 2] 
   Fmaj7                     Dm 
e|-0---1-0---1-0-----------|-------------------------| 
B|---------------3-1-------|-3---3-----3-----3-----3-| 
G|-----------------------2-|---2-----2-----2-----2---| 
D|---3-----3-----------3---|-0-----0-----0-----0-----| 
A|-------------------------|-------------------------| 
E|-1-----1-----1-----1-----|-------------------------| 
 
   G5 
e|-----0-----0-------------|-------------------------| 
B|-3-----3-----3-1---------|-------------------------| 
G|-0---------------0-----0-|-2-----2-----2-----2-----| 
D|---0-----0-----------0---|---2-----2-----2-----2---| 
A|-------------------------|-0---3-0---3-0---3-0---3-| 
E|-3-----3-----3-----3-----|-------------------------| 
 
   Dm                        C 
e|-1---3-1---3-1-0---------|-0-------------------------------| 
B|-3-----3-----3---3-----3-|-------1-------1-------1-------1-| 
G|---2-----2-----------2---|-----0-------0-------0-------0---| 
D|-0-----0-----0-----0-----|---2-------2-------2-------2-----| 
A|-------------------------|-3-------3-------3-------3-------| 
E|-------------------------|---------------------------------| 
 
[Part 3] 
 
e|-------------------------|-------------------------| 
B|-------1--3----------1---|-------------------------| 
G|-----3----------2--3-----|-------3--5-----0--2--3--| 
D|---2----------2----------|-----6--------0----------| 
A|-1----------0------------|---5---------------------| 
E|-------------------------|-4----------3------------| 
 
e|-------------------------|-------------------------| 
B|-------------------------|-------------------------| 
G|--------1--2--------1--2-|--------1--2--------1--2-| 
D|---2--3--------2--3------|---2--3--------2--3------| 
A|-0-----------0-----------|-0-----------0-----------| 
E|-------------------------|-------------------------| 
 
e|-------------------------|-------------------------| 
B|-------------------------|-------------------------| 
G|-------1--2-------1--2---|-------1--2-------1--2---| 
D|-----3----------3--------|-----3----------3--------| 
A|---3----------3----------|---3----------3----------| 
E|-1----------1------------|-1----------1------------| 
 
e|-------------------------|-------------------------| 
B|-------------------------|-------------------------| 
G|--------1--2--------1--2-|--------1--2--------1--2-| 
D|---2--3--------2--3------|---2--3--------2--3------| 
A|-0-----------0-----------|-0-----------0-----------| 
E|-------------------------|-------------------------| 
 
[Part 4] 
    Dm                         C 
e|-0---1-0---1-0------------|-----0-----0---------------| 
B|-3-------------3--1-----1-|-3-----3-----3--1----------| 
G|---2-----2------------2---|------------------0------0-| 
D|-0-----0-----0------0-----|---2-----2-------------2---| 
A|--------------------------|-3-----3-----3-------3-----| 
E|--------------------------|---------------------------| 
  
   Em                            Bb           Am 
e|-----0-----0---0--3------1-|-0-----0------------0------| 
B|-3-----3-----3-------------|---------------------------| 
G|---------------------------|-----2---2--------2----2---| 
D|---2-----2-------------2---|---2------------2--------2-| 
A|---------------------------|-1---------1--0------------| 
E|-0-----0-----0-------0-----|---------------------------| 
  
   Fmaj7                           Dm 
e|-0----1--0----1--0--1--5-------|-8------7----8-7--5---------| 
B|-----------------------5-------|-6----6-6------6----5-----5-| 
G|-----------------------5-----5-|-5--5------5------------5---| 
D|----3-------3--------------7---|-0------0------0------0-----| 
A|-------------------------0-----|----------------------------| 
E|-1-------1-------1-------------|----------------------------| 
  
[Outro] 
    Bb              Am           G#                          Am 
e|-------------------------------------------------------|-----| 
B|-------1--3----------------1---------------------------|-----| 
G|-----3---------------2--3-----------3--5------0--2--3--|--2--| 
D|---2---------------2--------------6---------0----------|-----| 
A|-1---------------0--------------5----------------------|--0--| 
E|------------------------------4-----------3------------|-----|
Наверх