Аккорды Песни из кинофильмов - Джентльмены удачи (из кинофильма "Джентльмены удачи")

Добавлено: @vitos
Дата добавления: 05 Ноября 2014г.
Рейтинг:
0.0
Просмотров: 546
Транспонировать - +
1----------------------------8-6-5--------------------------------
2--5-6-5-4-5---5-6-5-4-5---5-------5-8-6-5-6-5-3-3-3--3-5-3-2+3-3-
3------------5-----------5----------------------------------------
4-----------------------------------------------------------------
5-----------------------------------------------------------------
6-----------------------------------------------------------------

-----------------------------------------------
-3-5-3-2+3-3-(здесь побыстрей)-3-5-3-2+3-5-3-2+3--5-5--5-6-5-4-
---------------------------------------------------------------
---------------------------------------------------------------
---------------------------------------------------------------
---------------------------------------------------------------

-----------5-5----------------------------------5-10-8-7-8-7-5-
5-6-5--5-5-----5-5-3-3-5-3-1-0-3-1-1-1-0-----------------------
-----------------------------------------2-1-2-----------------
---------------------------------------------------------------
---------------------------------------------------------------
---------------------------------------------------------------

-5-10-8-7-8-7-5--5-10-8-10-8-8-7-5-4-5-
---------------------------------------
---------------------------------------
---------------------------------------
---------------------------------------
---------------------------------------
comments powered by Disqus
Наверх