Аккорды Песни из кинофильмов - Тема Люка Скайуокера (из кинофильма "Star Wars")

Добавлено: @vitos
Дата добавления: 18 Ноября 2014г.
Рейтинг:
0.0
Просмотров: 338
Транспонировать - +
e|-----3----5-----6h8--6-------|------3---5-3-6------10/12----10-10-10-----         
B|-3-3----------------------3--|--3 3-----------3--------------------------
G--------------------------------------------------
D--------------------------------------------------
A--------------------------------------------------
E--------------------------------------------------

e|-----3---5-3-6----10----|-3-3--10-8-6-5-3--3--/10--||         
B|-3-3-----------3-----------------------||
G----------------------------||
D----------------------------||
A----------------------------||
E----------------------------||
comments powered by Disqus
Наверх