Аккорды Песни из кинофильмов - Я боюсь этой тьмы (из кинофильма "Мушкетеры. 20 лет спустя")

Добавлено: @vitos
Дата добавления: 18 Ноября 2014г.
Рейтинг:
0.0
Просмотров: 502
Транспонировать - +
Припев:
 Gm           D#
Я боюсь этой тьмы,
 Cm
Беспросветной и жуткой!
 Gm     D#
Оттуда сюда
 Cm            H7
Никогда не вернусь!
 Gm            D#
Это шутка какая-то,
 Cm
Глупая шутка
 B           Gm
Иль сон это, сон,
 D             Cm7
И сейчас я проснусь!


 B                               D
Сейчас проснусь, и сгинет этот ужас!
 D#
Жизнь погасить нельзя ведь, как свечу!
 B                           D
Послушайте, мне ничего не нужно –
  D
Я жить хочу, я только жить хочу!


Припев:
Я боюсь этой тьмы,
Беспросветной и жуткой!
Оттуда сюда
Никогда не вернусь!
Это шутка какая-то,
Глупая шутка
Иль сон это, сон,
И сейчас я проснусь!


Я вас молю, не смейтесь над беднягой.
Я вам согласен целый век служить!
Последним нищим, крысой иль собакой
Плохой согласен быть, но только жить!


Припев:
Я боюсь этой тьмы,
Беспросветной и жуткой!
Оттуда сюда
Никогда не вернусь!
Это шутка какая-то,
Глупая шутка
Иль сон это, сон,
И сейчас я проснусь!

Это шутка какая-то,
Глупая шутка
Иль сон это, сон,
И сейчас я проснусь!


***Мелодия (без соблюдения длительности и пауз):

Припев:
E-----------------------------------------|
B|-8-8-8-13-8-4---8-4-1--3-4-1-3-4-8-6-1-4-3-1-1-4-3-0|

E----------------------6-4----------------|
B|-8-8-8-13-8-4---8-4-1--3-4-1-3-4-----4-8-6-4-3-4-3-1|

Куплет:
B|-1----------------------------------------------|
G|---3--3-3--3-7-7-7-7-7-7--7--8-8-8-8-8-8-8-10-12|

B|-1-------------------------------------------------|
G|---3--3-3--3-7-7-7-7-7-7--7--7-7-7-7-7-7-8-7-7-10-7|
comments powered by Disqus
Наверх