Аккорды Песни из кинофильмов - Никого не жалко (из кинофильма "Бумер")

Добавлено: @vitos
Дата добавления: 18 Ноября 2014г.
Рейтинг:
0.0
Просмотров: 732
Транспонировать - +
Басовая партия в переложении на гитару

Куплет/проигрыш
E|-------------------------------------------------------------|
H|-------------------------------------------------------------|
G|-------------------------------------------------------------|
D|-------------------------------------------------------------|
A|--------7-7-7-7--------7-7-7-7----5-----5-5-5-5------7-7-7-7-|
E|-5---5-----------5----5-----------------5---------5---5------|

Припев
E|-------------------------------------------------------------|
H|-------------------------------------------------------------|
G|-------------------------------------------------------------|
D|-------------------------------------------------------------|
A|-------5-5--4-4--3-3--2-2-----------7-7-7-7--------7-7-7-7---|
E|--------------------------------5---5-----------5----5-------|

Соло на гармошке

Проигрыш
E|-------12-12-12--------|
H|--10-12----------12-10-|
G|-----------------------| 4 раза
D|-----------------------|
A|-----------------------|
E|-----------------------|

Припев
E|-10---10---10---10---10---10---10---10----12----------12-----|
H|----12---12---12---12---12---12---12---12----10-10-10---10-10|
G|-------------------------------------------------------------|
D|-------------------------------------------------------------|
A|-------------------------------------------------------------|
E|-------------------------------------------------------------|


 Am                        Am
Все мы герои фильмов про войну
 Dm                      Am
Или про первый полет на луну
Или про жизнь одиноких сердец
У каждого фильма свой конец


 Dm
Никого не жалко, никого
 Am
Ни тебя, ни меня, ни его
Никого не жалко, никого
Ни тебя, ни меня, ни его


Нет друзей и нет приятелей
Нет врагов и нет предателей
Многим из нас уже жить не хочется
Все мы дро...м или дро...ся


Никого не жалко, никого
Ни тебя, ни меня, ни его
Никого не жалко, никого
Ни тебя, ни меня, ни его
comments powered by Disqus
Наверх