Аккорды Песни из кинофильмов - Harry Potter (из кинофильма "Harry Potter")

Добавлено: @vitos
Дата добавления: 29 Июня 2016г.
Рейтинг:
0.0
Просмотров: 222
Транспонировать - +
G|-------------------------------------------------------------------0-------|
D|-----------------2--0-------------------------------------------2------4-0-|
A|----0---3-2-0------------2---0---3-2------2--------0---3-2-0---------------|
E|--0----------------------------------4------0---0--------------------------|

G|---------------------------------------------------------------------------|
D|-3---2-1-------------------------------------------------------------------|
A|-----------------3--0------------------------------------------------------|
E|------------0--------------------------------------------------------------|
comments powered by Disqus
Наверх