Аккорды Песни из кинофильмов - The Spanish Tango (из кинофильма "Зорро" - "Zorro")

Добавлено: @vitos
Дата добавления: 30 Июня 2016г.
Рейтинг:
0.0
Просмотров: 324
Транспонировать - +
Tuning: standard


Intro: trumpet 
e|---------------------------------------------------|
B|--------14~--10--13~--13--11-10-8------------------|
G|---------------------------------------------------|
D|---------------------------------------------------|
A|---------------------------------------------------|
E|---------------------------------------------------|
part one
e|---------------------------------------------------|
B|---8-10-11---8-10-11---8-10-11---13-11-10----------|
G|---------------------------------------------------|
D|---------------------------------------------------|
A|---------------------------------------------------|
E|---------------------------------------------------|
part two
e|---------------------------------------------------|
B|--7-8-10---7-8-10---7-8-10----11-10-8--------------|
G|---------------------------------------------------|
D|---------------------------------------------------|
A|---------------------------------------------------|
E|---------------------------------------------------|

part one again

part three
e|---------------------------------------------------|
B|--7-8-10---11-10-8---10-8-7---8-7-5----------------|
G|---------------------------------------------------|
D|---------------------------------------------------|
A|---------------------------------------------------|
E|---------------------------------------------------|

After last note (5) there is a guitar in spanish stye E,G,A
comments powered by Disqus
Наверх