Аккорды Песни из кинофильмов - In The House - In A Heartbeat (из кинофильма "28 Days Later")

Добавлено: @vitos
Дата добавления: 04 Июля 2016г.
Рейтинг:
0.0
Просмотров: 426
Транспонировать - +
Tuning: EADGBE Regular

Note: Guitar 1 plays only these tabs for the whole song.


GUITAR 1
e|--10--10--10--10--10--10--10--10--10--10--10--10--10--10--10--10---------|
B|10--10--10--10--10--10--10--10--10--10--10--10--10--10--10--10-----------|
G|-------------------------------------------------------------------------|
D|-------------------------------------------------------------------------|
A|-------------------------------------------------------------------------|
E|-------------------------------------------------------------------------|


GUITAR 2 comes in at 00:25 seconds. (Strum the tabs. Figure out the rythym.) x1
e|-------------------------------------------------------------------------|
B|-------------------------------------------------------------------------|
G|6-7-9-10-----------------------------------------------------------------|
D|x-x-x-x------------------------------------------------------------------|
A|4-5-7-8------------------------------------------------------------------|
E|-------------------------------------------------------------------------|

GUITAR 2 comes in at 00:32 and stays in for the rest of the song
e|-------------------------------------------------------------------------|
B|-------------------------------------------------------------------------|
G|6-6-7-7-9-9-10-10--------------------------------------------------------|
D|-------------------------------------------------------------------------|
A|-------------------------------------------------------------------------|
E|-------------------------------------------------------------------------|


GUITAR 3 comes in at 00:57 and stays infor the rest of the song
(Strum the tabs. Firgure out the rythym.)
e|-------------------------------------------------------------------------|
B|-------------------------------------------------------------------------|
G|6-7-9-10-----------------------------------------------------------------|
D|x-x-x-x------------------------------------------------------------------|
A|4-5-7-8------------------------------------------------------------------|
E|-------------------------------------------------------------------------|

GUITAR 3 comes in at 02:13 and stays in for the rest of the song
e|9--9--10--10--12--12--13--13---------------------------------------------|
B|x--x--x---x---x---x---x---x----------------------------------------------|
G|6--6--7---7---9---9---10--10---------------------------------------------|
D|-------------------------------------------------------------------------|
A|-------------------------------------------------------------------------|
E|-------------------------------------------------------------------------|

 (Any guitar can play this part.)

e|9--9--11--11--9--9--11--11--7-7-7-7-9-9-8-8--9--9--11--11--9--9--11--11--|
B|-10-10--10--10-10-10--10--10-9-9-9-9-9-9-9----10-10--10--10-10-10--10--10|
G|-------------------------------------------------------------------------|
D|-------------------------------------------------------------------------|
A|-------------------------------------------------------------------------|
E|-------------------------------------------------------------------------|

Ending continued.
e|7-7-7-7-9-9-8-8----------------------------------------------------------|
B|-9-9-9-9-9-9-9-----------------------------------------------------------|
G|-------------------------------------------------------------------------|
D|-------------------------------------------------------------------------|
A|-------------------------------------------------------------------------|
E|-------------------------------------------------------------------------|
comments powered by Disqus
Наверх