Аккорды Песни из кинофильмов - Moon River (из кинофильма "Breakfast at Tiffany's")

Добавлено: @vitos
Дата добавления: 05 Июля 2016г.
Рейтинг:
0.0
Просмотров: 416
Транспонировать - +
Verse 1:
Moon River wider than a mile,
I'm crossin' you in style, some day.
Oh Dreammaker you heartbreaker,
Wherever your goin', I'm goin' your way.


Verse 2:
Two drifters off to see the world;
There's such a lot of world to see.
We're after the same rainbow's end,
Waitin' round the bend, my huckelberry friend.
Moon River and me.


3/4 time
    E           E           E           Am          E
E|-----------|-----------|-----------|-----------|--------------|
B|-----------|-----------|-----------|-----7--7--|--------------|
G|-----3--3--|-----3--3--|-----3--3--|-----8--8--|-----10--8----|
D|-----4--4--|-----4--4--|-----4--4--|---8----8--|-----9---9----|
A|---4----4--|---4----4--|---4----4--|--6-----6--|---9-----9----|
E|--2-----2--|--2-----2--|--2-----2--|-----------|--7------7----|
 
                            Moon        River,      wider  than a
                            Two         drifters    off to see the

    C              E                C             Am          
E|--------------|----------------|-------------|-------------|
B|--------------|----------------|-------------|-----9---9---|
G|-----6--------|-----8-----8----|-----6---6---|-----10--10--|
D|-----8---8----|-----9-----9----|-----8---8---|-----10--10--|
A|---9-----9----|---9-------9----|---9-----9---|--8------8---|
E|--6------6----|--7--------7----|--6------6---|-------------|

    mile.  I'm     crossin' you in  style, some   day.
    world; there's such a   lot of  world  to     see.     

                 Am          A             E          A
E|------6--6--|-----------|------------|-----------|-----7--7--|
B|------8--8--|-----7--7--|------------|-----------|-----9--9--|
G|------7--7--|-----8--8--|-----11--11-|-----8--8--|-----9--9--|
D|------6--6--|---8----8--|-----11--11-|-----9--9--|-----9--9--|
A|------------|--6-----6--|---9-----9--|---9----9--|---7-------|
E|--6-9-------|-----------|--9------9--|--7-----7--|--7--------|

           Oh    Dream   -   maker    you heart   -   breaker, where-
           We're

    C            Am E              E            G
E|------------|-------------|-------------|-----------|
B|------------|-------------|-------------|-----------|
G|-----6------|--8--10------|--10--8------|--8--6--6--|
D|-----8--8---|--8--11--11--|--11--9--9---|--9--6--6--|
A|---9----9---|--6--11--11--|--11--9--9---|--9--8--8--|
E|--6-----6---|--6--9---9---|--9---7--7---|--7--9--9--|

    ever  your   goin'     I'm goin'  your   way.

    E            Am          A            
E|------------|-----------|------------|-------------|
B|------------|-----7--7--|------------|------9------|
G|-----3--3---|-----8--8--|----11------|-----8-------|
D|-----4--4---|---8----8--|----11------|----8--------|
A|---4----4---|--6-----6--|---9--------|---6---------|
E|--2-----2---|-----------|--9---------|--6----------|

    af -  ter          the   same               rainbow's

    A             E                    C                 (slow..
E|-------------|--------------------|-----------|-------------|
B|-------------|--------------------|-----------|-------------|
G|-----11--11--|-----8-------8------|-----6--6--|-------------|
D|-----11--11--|-----9-------9------|-----8--8--|----8--------|
A|---9-----9---|---9---------9------|---9----9--|---9---------|
E|--9------9---|--7----------7------|--6-----6--|--6----------|

    end,             waitin' round the bend               my

           ...)   C             C           E
E|-------------|-------------|-----------|-----------|
B|-------------|-------------|-----7--7--|----9--9---|
G|-------------|------6---6--|-----6--6--|----10-10--|
D|-------------|------8---8--|-----8--8--|----11-11--|
A|-------------|---9------9--|-----9--9--|----11-11--|
E|-------------|--6-------6--|--6--------|--9--------|

    huckelberry     friend      Moon        River

                  E     C     Em      E
E|-------------|-------------------|--------------|
B|-------------|-------------------|--------------|
G|-------------|-----8-----6-----4-|-----3--------|
D|--11---------|----9-----8-----6--|----4---------|
A|--11---------|---9-----9-----6---|---4----------|
E|--9----------|--7-----6-----4----|--2-----------|

           and    me.

|------------------------------------------------------------------|
comments powered by Disqus
Наверх