Аккорды Песни из кинофильмов - Lord Of The Rings (из кинофильма "Lord Of The Rings")

Добавлено: @vitos
Дата добавления: 05 Июля 2016г.
Рейтинг:
0.0
Просмотров: 221
Транспонировать - +
Intro/Verse

e------------------------------------------------------------------
b------------------------------------------------------------------
g-----------------------------0-3-2--------------------------------
d-------0-3-0-----------1-3---------3-0-1-0------------------------
a--1--3---------3--1------------------------3----------------------
e------------------------------------------------------------------


Chorus 1
e------------------------------------------------------------------
b------------------------------------------------------------------
g------------------------------------------------------------------
d------------------5-7-8--8-7-----7--5--3--2-----------------------
a--5--5--3--3--5--------------8-8-------------3--5-----------------
e------------------------------------------------------------------

e-----------------------------------------------------------------
b-----------------------------------------------------------------
g-----------------------------------------------------------------
d----------------5-7-8--7-9-10--9-11-12---------------------------
a-5--5--3--3--5---------------------------------------------------
e-----------------------------------------------------------------
comments powered by Disqus
Наверх