Аккорды Песни из кинофильмов - Pearl Harbor (из кинофильма "Pearl Harbor")

Добавлено: @vitos
Дата добавления: 07 Июля 2016г.
Рейтинг:
0.0
Просмотров: 285
Транспонировать - +
 ------------------------------------------------
 ------------------------------------------------
 ------------------------------------------------
 --------12-13-12-13-5-8--8-10-8-10-3-5-3--------
 ------------------------------------------------
 ------------------------------------------------

 ------------------------------------------------
 ------------------------------------------------
 ------------------------------------------------
 --------12-13-12-13-5-8--8-6-5-3-1-5--3---------
 ------------------------------------------------
 ------------------------------------------------

 ------------------------------------------------
 ------------------------------------------------
 ------------------------------------------------
 --------12-13-12-13-5-8--8-10-8-10-3-5-3--------
 ------------------------------------------------
 ------------------------------------------------

 ------------------------------------------------
 ------------------------------------------------
 ------------------------------------------------
 --12-13-12-13-5-8--8-6-5-3-1-6-5-3-1-6-5-3--1-3-
 ------------------------------------------------
 ------------------------------------------------
comments powered by Disqus
Наверх