Аккорды Песни из кинофильмов - Терминатор (из кинофильма "Терминатор")

Добавлено: @vitos
Дата добавления: 08 Июля 2016г.
Рейтинг:
0.0
Просмотров: 217
Транспонировать - +
Standart tuning


E|----------------------------------------------------------
B|--4h6-7*--6----------4h6-7*--6------11-12p11p10-----------
G|------------6*--1*-------------6--------------------------
D|----------------------------------------------------------
A|----------------------------------------------------------
E|----------------------------------------------------------


E|----------------------------------------------------------
B|--4h6-7*--6-----------------------------------------------
G|------------6*--1**---------------------------------------
D|---------------------4---4--3--1--------------------------
A|-----------------------4----------------------------------
E|----------------------------------------------------------
comments powered by Disqus
Наверх