Аккорды Scars On Broadway - Lives

Добавлено: @romashka
Дата добавления: 09 Мая 2018г.
Рейтинг:
0.0
Просмотров: 35
Транспонировать - +
Intro:
e|-------------|
B|-------------|
G|-------------|
D|--5-5-5-5-5--|
A|--5-5-5-5-5--|
E|--3-3-3-3-3--|

Verse:                                                                         
e|---------------------------------------------------------------|                e|-----------------|                    
B|---------------------------------------------------------------|                B|-----------------|
G|---------------------------------------------------------------|   6р3-5 или:   G|-----------------|
D|--5-5-5-5-5----------5-5-5-5-5--10-10-8--6---------------------|                D|--8р5/7----------|           
A|--5-5-5-5-5--6p3-5---5-5-5-5-5--10-10-8--6---------------------|                A|--6р3/5----------|
E|--3-3-3-3-3----------3-3-3-3-3--8--8--6--4---------------------|                E|-----------------|

e|---------------------------------------------------------------|                                       
B|---------------------------------------------------------------|                   
G|---------------------------------------------------------------|      
D|--5-5-5-5-5----------5-5-5-5-5--10-10-8--6---------------------|                           
A|--5-5-5-5-5--6p3-5---5-5-5-5-5--10-10-8--6---------------------|                
E|--3-3-3-3-3----------3-3-3-3-3--8--8--6--4---------------------|

Chorus:
e|---------------------------------------------------------------|
B|---------------------------------------------------------------|
G|---------------------------------------------------------------|
D|---------------------------------------------------------------|
A|---------------------------------------------------------------|
E|--3----4----8-----4/6-----3------------------------------------|

Chorus: Part 2
e|-----------------------------------------------------------------|
B|-----------------------------------------------------------------|
G|-----------------------------------------------------------------|
D|--5----6----10----6/8-----6--------------------------------------|
A|--5----6----10----6/8-----6--------------------------------------|
E|--3----4----8-----4/6-----4--------------------------------------|

Breakdown:
e|--------------------------------------------------------|
B|--------------------------------------------------------|
G|-----8------5-5-5-5-5-5-5р3---------8-------------------|
D|-5-5-8-8----5-5-5-5-5-5-5р3-----5-5-8-8----6-6-6-3------|
A|-5-5-6-8----3-3-3-3-3-3-3р1-----5-5-6-8----6-6-6-3-/2~--|
E|-3-3---6------------------------3-3---6----4-4-4-1------|

e|--------------------------------------------------------|
B|--------------------------------------------------------|
G|-----8------5-5-5-5-5-5-5р3---------8-------------------|
D|-5-5-8-8----5-5-5-5-5-5-5р3-----5-5-8-8----6-6-6-3------|
A|-5-5-6-8----3-3-3-3-3-3-3р1-----5-5-6-8----6-6-6-3-/2~--|
E|-3-3---6------------------------3-3---6----4-4-4-1------|

Lyrics:

Verse:
Everybody dance, when you dance, when you wanna dance
When you wanna dance, you will get in a trance
Everybody sees, what they see, what they wanna see
Everyone believes what they never have seen
Come with me, let's go, where we trace back the lies that show
You will never know unless you come with me, let's go
Everybody dance, when you dance, when you wanna dance
When you start to dance, you will get in a trance

Chorus:
All of our lives we put up a fight
Our heroes have died
All of our lives we've known wrong from right
Our people survived

Everyone get high, there's no need to justify
Everyone get high, there's no need to justify
We will occupy and we all know the reasons why
We will occupy and we drink tea 'till we die
Knowing something true absolutely unbearable
Knowing something true that will change the world I know
Everyone get high, there's no need to justify
Everyone get high, there's no need to justify

Chorus:
All of our lives we put up a fight
Our heroes have died
All of our lives we've known wrong from right
Our people survived

Chorus Part 2:
All of our lives, all of our lives
All of our lives
All of our lives we did what was right
Our soul will survive

Breakdown:
We are the people who were kicked out of history
We are the people who exist in victory

You will deny, we will verify
How long can you run
You will deny, we will verify
So it shall be done

Verse:
Everybody dance, when you dance, when you wanna dance
When you start to dance, you will get in a trance
Everyone get high, there's no need to justify
Everyone get high, there's no need to justify

Chorus:
All of our lives we put up a fight
Our heroes have died
All of our lives we've known wrong from right
Our people survived

Chorus Part 2:
All of our lives, all of our lives
All of our lives
All of our lives we've put up a fight
Survived genocide, survived genocide

Chorus:
Everybody dance, when you dance, when you wanna dance
When you start to dance, you will get in a trance
Everyone get high, there's no need to justify
Everyone get high, there's no need to justify
comments powered by Disqus
Наверх