Аккорды Scars On Broadway - Enemy

Добавлено: @romashka
Дата добавления: 03 Марта 2021г.
Рейтинг:
0.0
Просмотров: 72
Транспонировать - +
C#m B5 x4

2:--7p5-5-7-5-7p5-7-5-7p5------5-5-7p5-5-5-7p5-5---------
3:------------------------8-6-------------------4-4-4s/6- 

C#5 C#5 C#5 / B5 / C#5 x3 
B5 B5 B5 B5                   x2

C#5   C#5 C#5 / B5 / C#5 
I know it's really hard to see
                B5
That we are the enemy
C#5   C#5 C#5 / B5 / C#5
I know it's really hard to see
                B5
That we are the enemy of the earth

3:------4--------
4:-4-6-7-2-4-6-7- X4

C#5
They'll fuck you, then they'll fuck themselves
                         B5
They raise the flag that Jesus sells
C#5
They'll fuck you, then they'll fuck themselves
                         B5
They raise the flag that Jesus sells


C#5   C#5 C#5 / B5 / C#5
I know it's really hard to see
                B5
That we are the enemy
C#5   C#5 C#5 / B5 / C#5
I know it's really hard to see
                B5
That we are the enemy of the earth

C#5 B5 x4

B5       C#5    B5       C#5
We're on drugs, we're on drugs
C#5       B5    C#5
We're all on drugs
B5       C#5    B5       C#5
We're on drugs, we're on drugs
C#5         B5     C#5
Baby, we're all on drugs
C#5 B5      C#5
Do you like drugs?

C#m B5 x4
2:--7p5-5-7-5-7p5-7-5-7p5------5-5-7p5-5-5-7p5-5---------
3:------------------------8-6-------------------4-4-4s/6- 
Alright!
C#m B5 x4
2:--7p5-5-7-5-7p5-7-5-7p5------5-5-7p5-5-5-7p5-5---------
3:------------------------8-6-------------------4-4-4s/6- 

C#5   C#5 C#5 / B5 / C#5
I know it's really hard to see
                B5
That we are the enemy
C#5   C#5 C#5 / B5 / C#5
I know it's really hard to see
                B5           C#5
That we are the enemy of the earth..

3:------4--------
4:-4-6-7-2-4-6-7- X4
            B5           C#5
We are the enemy of the earth...
            B5           C#5
We are the enemy of the earth...
Наверх