Аккорды «Scorpions»

Scorpions
Scorpions («Скорпионы») — легендарная немецкая рок-группа, образована в 1965 году в Ганновере. Для стилей группы были характерны классический хард-рок, хеви-метал, и лирические гитарные баллады. Является одной из самых популярных групп на мировой рок-сцене, продавшей более 100 миллионов копий альбомов, занимает 46-ю строчку в списке «Величайших артистов хард-рока» по версии VH1. С 2010 года гастролирует с прощальным туром «Get Your Sting And Blackout», который продлится до 2013 года. Группа была… Читать полностью... Scorpions («Скорпионы») — легендарная немецкая рок-группа, образована в 1965 году в Ганновере. Для стилей группы были характерны классический хард-рок, хеви-метал, и лирические гитарные баллады. Является одной из самых популярных групп на мировой рок-сцене, продавшей более 100 миллионов копий альбомов, занимает 46-ю строчку в списке «Величайших артистов хард-рока» по версии VH1. С 2010 года гастролирует с прощальным туром «Get Your Sting And Blackout», который продлится до 2013 года. Группа была основана в 1965 году Рудольфом Шенкером. В 1969 к ней присоединились младший брат основателя Михаэль Шенкер и вокалист Клаус Майне. На международной хард-рок сцене группа появилась в 1972 году, когда выпустила свой первый альбом «Lonesome Crow». Ближе к концу германского тура 1973, где они сопровождали популярных в ФРГ лондонских хард-рокеров UFO, Михаэлю Шенкеру предложили стать гитаристом этой группы, и он согласился. Стать новым гитаристом Scorpions предлагали Ули Роту, но тот предпочёл остаться в группе Dawn Road, где также играли Франсис Бухгольц (бас), Ахим Киршинг (клавишные) и Юрген Розенталь (ударные). Рудольф Шенкер решил присоединиться к этой группе. Затем в неё пригласили и Клауса Майне. В итоге эта группа взяла уже известное в Германии название Scorpions. В обновлённом составе группа записала диск «Fly To The Rainbow». В 1974 году место Розенталя заменил Руди Леннерс. Последующие альбомы «In Trance» и «Virgin Killer» показали, что Scorpions нашли свой уникальный стиль — необычайно мощные риффы, витиеватые гитарные соло и мелодические вокальные линии. Популярность группы в Европе и на Востоке росла, группа к тому же много гастролировала. Альбом «Taken by Force» — к этому времени Леннерса заменил Герман Раребелл — характерен найденным Scorpions «фирменным знаком» — мощными балладами. Альбом коммерчески оказался весьма успешным, но Роту такой творческий поворот не импонировал, и после гастрольного турне, в котором группа «обкатывала» этот альбом, он ушёл из Scorpions и организовал свою группу «Electric Sun». Во время этого турне Scorpions записали альбом «Tokyo Tapes», этим было ознаменовано завершение первой фазы их карьеры. На место Рота взяли Матиаса Ябса, но временно он вынужден был группу покинуть — Михаэль Шенкер рассорился с UFO и вернулся в Scorpions. Его гитара звучит в трёх композициях на альбоме «Lovedrive», он участвовал и в туре, в котором группа прокатывала этот альбом. Но в 1979 году Михаэль окончательно покинул Scorpions, основав свою группу MSG. На место соло-гитариста Scorpions вернулся Ябc. Состав Scorpions наконец-то стабилизировался, и группа приступила к своей основной задаче — завоеванию американского рынка. В 1980 году группа записывает свой 7-й по счёту альбом — «Animal Magnetism», в котором все соло во всех песнях играл Маттиас Ябс. Альбом получился очень «живым» — в лучших традициях хард-рока того времени. По сей день альбом является одной из «визиток» Scorpions. В период с 1980 по 1981 группа много гастролировала. У Клауса Майне начинаются серьёзные проблемы с горлом, и он переносит операцию на голосовые связки. Новый альбом «Blackout» попал в Top 10 журнала «Billboard», как и следующий альбом «Love At First Sting» — именно в этот альбом и вошла великолепная баллада «Still Loving You». Записанный «живьём» двойной альбом «World Wide Live» демонстрирует всё лучшее, чего достигла группа в течение второй фазы своей карьеры. Великолепно записанный и спродюсированный, он в течение четырёх месяцев занимал 14 место в американских чартах. Перед выпуском «Savage Amusement» в 1988 году — их первого студийного альбома за четыре года — группа взяла заслуженный отпуск. Альбом имел огромный успех, достиг пятой позиции в США и первых в европейских чартах. В 1989 году группа перешла на сотрудничество с Phonogram Records и тем завершила 20-летнюю работу с продюсером Дитером Дирксом. После этого вышел их самый успешный на сегодняшний день альбом «Crazy World», а песня из него «Wind Of Change», посвящённая перестройке в СССР, занимала первые места в хит-парадах всего мира и стала первой песней Scorpions с более чем миллионом продаж. Альбом продюсировал Кит Олсен, в связи с чем Scorpions обрели новый звук, при этом не предав своих творческих ориентиров и основ. Вскоре после релиза «Wind Of Change» рухнула Берлинская стена, а группа выступила на Потсдамской площади с Роджером Уотерсом и другими музыкантами в шоу The Wall Live in Berlin. В 1992 году Бухгольц ушёл из группы, а Scorpions вступили в третью, не менее успешную фазу своей карьеры и в многолетнее мировое турне. После него постоянным бас-гитаристом стал Ральф Рикерман, а место барабанщика занял Джеймс Коттак — с ними, а также при помощи продюсера Люка Херцога (клавишные), в 1996 году Scorpions записали альбом «Pure Instinct». Летом 1997 года группа подготовила двойной CD-сборник своих лучших песен, однако, когда дело дошло до печати тиража, выяснилось, что дистрибьюторские сети США отказываются заниматься альбомом. В результате было принято компромиссное решение: часть тиража отправилась в Нидерланды и Швецию, которые не имели ничего против провокационного изображения на обложке, а американская версия вышла в серой картонной коробке. Композиция «Under the Same Sun» из альбома 1993 года является финальной для фильма «В смертельной зоне». В 1999 году выходит экспериментальный альбом «Eye II Eye» (продюсер — Петер Вольф (Peter Wolf)). В «Du Bist So Schmutzig» («You Are So Dirty») мы впервые слышим немецкий текст. Как часть мирового турне «Eye II Eye» Scorpions отыграли по приглашению Майкла Джексона в благотворительном концерте «Майкл Джексон и друзья» («Michael Jackson and Friends») в Мюнхене. Была исполнена Send Me An Angel. Следуя своему девизу «Don't Stop at The Top!» («Не останавливайся на достигнутом!»), Scorpions встретили новое тысячелетие новым начинанием: совместный проект со всемирно известным Берлинским Филармоническим оркестром, которым ранее руководил легендарный Герберт фон Караян. В 1995 году оркестр рассматривал возможность совместного проекта и искал подходящую группу. Спустя годы даже этот классический оркестр признал успех и международную репутацию Scorpions. Два «Мерседеса» немецкой музыки согласились на совместную смелую затею под руководством знаменитого продюсера, композитора, дирижёра и аранжировщика австрийца Кристиана Колоновица (Christian Kolonovits). Предвестником грядущих событий стало выступление Scorpions по приглашению немецкого правительства на концерте, прошедшем перед Бранденбургскими Воротами в Берлине 11 ноября 1999 года, на 10 годовщину объединения Германии. «Wind Of Change» вместе со Scorpions исполняли 166 виолончелистов, а солировал выдающийся виолончелист-виртуоз Мстислав Ростропович. В январе 2000 года Scorpions вместе с Кристианом Колоновицем начали студийную запись в Вене. Берлинский филармонический оркестр записал свои партии в апреле. Окончательно альбом был микширован в апреле-мае 2000 года в Galaxy Studios в Бельгии. Совместный альбом Scorpions и Берлинского Филармонического оркестра, «Moment Of Glory», был выпущен 29 августа 2000 года. Первый концерт состоялся 22 июня 2000 года на выставке EXPO-2000 в Ганновере. Альбом также включает в себя официальный гимн выставки «Moment Of Glory». В феврале 2001 года Scorpions дали несколько акустических концертов в Лиссабоне. По их итогам был записан концертный альбом «Acoustica», который включает в себя акустические варианты старых хитов, а также 3 новых песни. В записи проекта опять принимал участие Кристиан Колоновитц. Он работал над аранжировками, а также записал партии клавишных к альбому. Не прекращая студийной работы, весной этого же года Scorpions дали концерты в России и странах СНГ в рамках тура «Moment Of Glory». В июне Scorpions продолжили «освоение» стран Восточной Европы, впервые выступив в столице Албании Тиране. А сразу же после выхода альбома «Acoustica» группа отправилась в мировое турне в поддержку альбома. 2002 год не был отмечен студийными проектами, зато был чрезвычайно богат на «живые» выступления. В 2004 году вышел альбом «Unbreakable», в очередной раз подтвердивший высокий профессионализм его создателей. В 2005 году Scorpions приняли участие в праздновании тысячелетия Казани. В 2006 году группа выступила на фестивале Wacken Open Air в честь своего 35-летия; в концерте также приняли участие бывшие участники группы Ули Джон Рот, Михаэль Шенкер и Герман Раребелл. В июне 2006 года группа закрывала open air «Stop контрафакт», проводившийся в Санкт-Петербурге и приуроченный к проходившему тогда саммиту «Большой Восьмёрки». В выступление вошли композиции с альбома Unbreakable и классические баллады Scorpions. 14 мая 2007 года в Европе (28 августа в США и Канаде) вышел концептуальный альбом «Humanity: Hour I». Продюсер — James Michael, сопродюсер, а также соавтор песен Desmond Child — он работал с такими звёздами, как: Aerosmith, Bon Jovi, Alice Cooper, Kiss, Ricky Martin, Cher, Michael Bolton и Bonnie Tyler. В песне «The Cross» поёт не только Клаус Майне, но и фронтмэн группы Smashing Pumpkins Билли Корган. Над альбомом работали и другие известные личности. Scorpions почти завершают свою карьеру прощальным мировым турне. 12 марта 2010 года вышел сингл «The Good Die Young», а 19 марта состоялся релиз одного из последних альбомов группы «Sting In The Tail». 18 марта состоялся концерт Scorpions в Москве, в ДС Мегаспорт на Ходынском поле. 29 апреля в рамках прощального мирового тура группа дала концерт в Минске, в Минск-Арене. 15 мая прошёл концерт в Ростове-на-Дону. 19 мая - в Новосибирске. 14 октября прошел концерт в Кишинёве. 2 ноября 2010 года прощальный концерт прошел в Киеве, 4 ноября ― в Одессе. Общее прощальное турне по России прошло в мае 2011 года. 29 сентября на пресс-конференции в Донецке группа заявила: «Мы закончили работу над проектом, который увидит свет в ноябре 2011 года». 30 сентября 2011 года концерт прошёл в Донецке. В 2012 году анонсирован ещё один тур по России, который Scorpions решили провести после получения множества писем от слушателей, как сообщила сама группа. Завершением карьеры будет выступление на всемирно известном фестивале Wacken Open Air в Германии. 4 ноября 2011 года (был анонсирован 3 октября 2011 года) выходит последний альбом Comeblack. Альбом состоит наполовину из их перезаписанных хитов и наполовину из кавер-версий песен, которые были популярны в 1960—1970 годах. Этим альбомом Scorpions планируют закончить свою музыкальную карьеру. Составы: Текущий состав: Клаус Майне (вокалист) Маттиас Ябс (соло-гитарист) Рудольф Шенкер (ритм-гитарист) Джеймс Коттак (ударные) Павел Мончивода (бас-гитарист) Предыдущие составы: 1965-1970 Рудольф Шенкер (гитарист, вокалист) Карл-Хейц Вольмер (гитарист) Ахим Киршинг (бас-гитарист) Вольфганг Дзиони (ударные) 1970-1972 Клаус Майне (вокалист) Рудольф Шенкер (гитарист) Михаэль Шенкер (гитарист) Лотар Хаймберг (бас-гитарист) Вольфганг Дзиони (ударные) 1973-1974 Клаус Майне (вокалист) Рудольф Шенкер (гитарист) Ульрих Рот (гитарист) Фрэнсис Бухгольц (бас-гитарист) Юрген Розенталь (ударные) 1975-1976 Клаус Майне (вокалист) Рудольф Шенкер (гитарист) Ульрих Рот (гитарист) Франсис Бухгольц (бас-гитарист) Руди Леннерс (ударные) 1977 Клаус Майне (вокалист) Рудольф Шенкер (гитарист) Ульрих Рот (гитарист) Франсис Бухгольц (бас-гитарист) Герман Раребелл (ударные) 1978-1992 (классический состав) Клаус Майне (вокалист) Рудольф Шенкер (гитарист) Маттиас Ябс (гитарист) Франсис Бухгольц (бас-гитарист) Герман Раребелл (ударные) 1993-1995 Клаус Майне (вокалист) Рудольф Шенкер (гитарист) Маттиас Ябс (гитарист) Ральф Рикерманн (бас-гитарист) Герман Раребелл (ударные) 1996 Клаус Майне (вокалист) Рудольф Шенкер (гитарист) Маттиас Ябс (гитарист) Ральф Рикерманн (бас-гитарист) Курт Кресс (ударные) 1997-2003 Клаус Майне (вокалист) Рудольф Шенкер (гитарист) Маттиас Ябс (гитарист) Ральф Рикерманн (бас-гитарист) Джеймс Коттак (ударные) Студийные альбомы: Lonesome Crow (1972) Fly to the Rainbow (1974) In Trance (1975) Virgin Killer (1976) Taken by Force (1977) Lovedrive (1979) Animal Magnetism (1980) Blackout (1982) Love at First Sting (1984) Savage Amusement (1988) Crazy World (1990) Face the Heat (1993) Pure Instinct (1996) Eye II Eye (1999) Moment of Glory (Scorpions и Берлинский филармонический оркестр, 2000) Unbreakable (2004) Humanity: Hour I (2007) Sting In The Tail (2010) Comeblack (2011) Концертные альбомы: Tokyo Tapes (1978) World Wide Live (1985) Live Bites (1995) Acoustica (2001) DVD & VHS: First Sting (1985) World Wide Live (1985) To Russia With Love (1988) Moscow Music Peace Festival (1990) Roger Waters The Wall Berlin 1990 (1990) Crazy World Tour Live ... Berlin 1991 (1991) Moment of Glory - Berliner Philharmoniker Live (2001) Acoustica (2001) A Savage Crazy World (2002) Unbreakable World Tour 2004: One Night in Vienna (2004) Live At Wacken Open Air 2006 (2007) Amazonia – Live in the Jungle (2009) Live - Get Your Sting & Blackout(blu-ray 3D) (2011) Литература: Р.Шенкер, Л.Аменд. Rock Your Life. «Scorpions». М.: Эксмо, 2011. 344 с., 7 000 экз., ISBN 978-5-699-48274-0 Скрыть...
Популярные аккорды Scorpions:
алфавиту | просмотрам | случайно
  • Riff A (Opening):
    
    -----1--------3--1--0-----|-----1-----------0--------|--
    --------3--------------3--|--------3-----------3-----|--
    -----------2--------------2-----------2--|--
    --0--------------------------------------|--
    --------------------------|--1-----------3-----------|--
    -----------------------------------------|--
    
    
    Riff…
  • Riff1
    e|----0----------0----------2----------2------|
    h|------5----------5----------3----------3----|
    g|--------4----------4----------4----------4--|
    d|-2------------------------------------------|
    a|------------3----------5----------2---------|
    e|--------------------------------------------|
    
    Riff2
    e|----0----------0----------2------2----------|
    h|------5----------5----------3---------3-----|
    g|--------4----------4----------4-----4---4---|
    d|-2------------------------------------------|
    a|------------3----------5--------------------|
    e|--------------------------------------------|
    
    Riff1
    The…
  • Gm
    Time, it needs time to win back your love again.
                A                D
    I will be there, I will be there.
     Gm
    Love, only love can bring back your love someday.
                A                D
    I will be there,…
  • Am             Fmaj   Dm E
    Since you're gone
       Am            Fmaj   Dm E
    There is an the empty space
       Am            Fmaj   Dm E
    Since you'rr gone
       Am            Fmaj   Dm E
    The world is not the same
    
     Am…
  • [Intro:] F, Dm, F, Dm, Am7, Dm Am7, G
    
     C                Dm
      I follow the Moskva
                    C
      Down to Gorky Park
                       Dm      Am7  G
      Listening to the wind of change
     C                 Dm
      An August…
  • C               G                D        Em
    E|-----|-------0-----0-|-------3-----3-|---2----|---0-----|
    B|-----|-1-------1-----|---0-----0-----|-----3--|-----0---|
    G|-----|---0-------0---|-----0-----0---|-------2|-------0-|
    D|-----|-----2---------|-------0-------|--------|---------|
    A|0-2-3|---------------|---------------|-0------|-2-------|
    E|-----|---------------|-3-------------|--------|---------|
    
    Am
    E|--0-----0---|
    B|----1-----1-|
    G|------2-----|
    D|------------|
    A|0-----------|
    E|------------|
    
    КУПЛЕТЫ:…
  • Em       Am               C               D
    Do you say a prayer when your feeling down
    Em       Am                   C                    D
    Do you believe that love can turn your faith around
    You?re feeling high and low,…
  • Intro.
    
    Verse 1.
    Riff 1.
    I was born from the sound of the strings
    For someone to give everything
                               Riff 2a
    To be a song just for your fealings.
    
    Riff 1.
    Close your eyes and I´ll try…
  • Dm
    Let me take you far away
          C       A    Dm
    You'd like a holiday
    Dm
    Let me take you far away
          C       A    Dm
    You'd like a holiday
    
                  C                Dm
    Exchange the cold days for the sun
    G…
  • 1) Intro
       Gtr.1(acoustic): plays Rhy.Fig.1
    
    2) 1st Verse
       Gtr.1: plays Rhy.Fig.2
       Vocal:
                        Bm
       You give me your smile
                       D
       A piece of your heart
                       A…
  • E|-------------------------12~-10--8-----------------|
    B|-----10-13-13~--12--10--------------12--10---10~~~-|
    G|-9-----------------------------------------9-------|
    D|---------------------------------------------------|
    A|---------------------------------------------------|
    E|---------------------------------------------------|
    
    E|--------------------------------------------|
    B|-------5--8---6---5-------------------------|
    G|-----5---------------7-5-7-5----------------|
    D|-7----------------------------9--7--5~~~~~~-|
    A|--------------------------------------------|
    E|--------------------------------------------|…
  • D          A
    A place without a name
    Em        Hm
    Under a  burning sky
    There is no milk and hunny here
    In the land of God
    
    Somebody holds a sign
    It sais "we?re humans too"
    And while the sun goes down
    The world goes by
    
    Припев:
    White…
  • Вступление:  HmC/D   (4раза)
         Hm              C                D
         I saw the money, it was shatter by your done
                      Hm           C             D
         Her discream, so in far, no one cryed
         Hm…
  • Dm
    Let me take you far away
          C       A    Dm
    You`d like a holiday
    Dm
    Let me take you far away
          C       A    Dm
    You`d like a holiday
    
               C                Dm
    Exchange the cold days for the sun
    G…
  • C			 Am
    A live begins another´s over
    C                    Am
      As another day begins 
    C				Am
    Life runs full circle getting older
        F
    It happens to me
        Dm          G	
    It happens to you
    
    
    I do believe…
  • Am
    Have you ever seen the morning
                      G
    When the sun comes out the shore
                      Am                     G
    And the silence makes the beauty for a sound
                      C
    Have you ever sat awaiting…
  • Am
    Like it played loud
    Powerhouse sounds
    My baby wants to rock and let it out
    Really high born
    Morning till down
    I´m going all the way just on and on 
    G
    It´s gonna be wild, it´s gonna be wild
    It´s…
  • intro (repeat many times)
    E|----------------------------------------------------------|
    B|----------------------------------------------------------|
    G|9-9-9-9-9-9------5-5-5-x-5------7-7-7-7-7-7-----9-9-9-x-9-|
    D|9-9-9-9-9-9------5-5-5-x-5------7-7-7-7-7-7-----9-9-9-x-9-|
    A|7-7-7-7-7-7------3-3-3-x-3------5-5-5-5-5-5-----7-7-7-x-7-|
    E|----------------------------------------------------------|
    
    verse
    
    E|-------------------------------------|
    B|-------------------------------------|
    G|-9---------7---------------7---------|
    D|-9---------7-w/…
  • Am                F              G            Am
    Girl, it´s been a long time that we´ve been apart
             F          G             Am
    Much too long for a man who needs love
      C                        E
    I…
  • Вст.:Em Em Em G G
    I'm still living for tomorrow
    I'm living for today
    Em  D  Em  Am  Em  D  Em Em
            Em
    Let's make this world
        D                 Em Am
    A better place to live
                 Em  D
    Stop to take…
  • Verse:
    
    C             C7    F                fm
    Ave Maria del monte preciosita, chiquitita
    C                   G             C
    es el morro de los negros la mansion.
            C7                          F
    Extrano mundo…
  • Intro & Verse:
        Dm              C             Dm              C
    E|----1---------5-------------------1---------5-----|
    B|------3-----------1-1-1-3---1-------3-----------1-|
    G|--------2---------0-0-0-0---0---------2---------0-|
    D|--0-------3-------2-2-2-2---2---0-------3-------2-|
    A|------------------3-3-3-3---3-------------------3-|
    E|--------------------------------------------------|
    
    Verse:
    Welcome…
  • Verse1:
    Am    Esus4
     Under suburban skies
    Dm            Am
     Where life is bleeding
    С              G
     Where concrete skies are grey
    Dm                            G
     There?s plenty of room for dreaming
    
    Verse2: (same chords:…
  • e---5-------5-----5------3---------5-----5--5--5--
    H-----7-------7----6-------3---------5----5--5--5-
    G-------6-------6---7--------4---------6---6--6---
    D-0-------0------------5-------5_7----------------
    A-------------------------------------------------
    E-------------------------------------------------
    (5_7…
  • /=slide up   =slide down
      Section A1
    e:---------------------------------------------------------------------------|
    B:---------------------------------------------------------------------------|
    G:---------------------------------------------------------------------------|
    D:---------------------------------------------------------------------------|
    A:-2/14--14--12--10--9---9---10--12--3---3---5---7---2---2---2/3---3---5---7-|
    E:---------------------------------------------------------------------------|…
  • Intro
    Gtr.1(acoustic): plays Rhy.Fig.1
    
    1st Verse
    Gtr.1 and Gtr.2(acoustic): plays chords written in vocal part
    Vocal:
    F                       Dm
    Is this world out of control
        Am            G
    Say what is right what is…
  • Intro
    ¦----------------------------------------------------------------------------¦
    ¦-----4-6^8-6^(8)^6-------6------6--8-8^(9)--8---6^6------4-----4---6h8-6----¦
    ¦---5-----------------8-7----------------------------8--5---5-3--------------¦
    ¦---------------------------------------------------pm-----pm----------------¦
    ¦----------------------------------------------------------------------------¦
    ¦----------------------------------------------------------------------------¦
    ¦…
  • C+G:       Am+G:
    6)-|-|-|  6)-|-|-|
    5)-|-|3|  5)-|-|-|   (горизонтальные линии - струны, вертикальные - лады
    4)-|2|-|  4)-|2|-|    числа между ладами - номера пальцев,
    3)-|-|-|  3)-|3|-|    вертикальные столбцв чисел - номера…
  • Standard tuning
    
    clean tone
    Intro
    ---2-2--2-2--2-2--2-2------------------------
    ---3-3--3-3--3-3--3-3------------------------
    ---4-4--2-2--2-2--2-2------------------------
    ---4-4--4-4--4-4--4-4------------------------
    ---2-2--2-2--2-2--2-2------------------------
    ---------------------------------------------
    
    
    
    Distortion
    --2------0------2-------0-------2------0---
    --3------1------0-------0-------3------1---
    --2------0------2-------0-------2------0---
    --0------2------1-------2-------0------2---
    ---------3--------------2--------------3---
    ------------------------0------------------
    Ahh…
  • Intro
    G|---------------------
    D|---------------------
    A|---------------------
    E|-0-0-0-0-0-0-0-0-0-0-
    (with drums)
    
    Guitar Solo 1
    G|---------------------
    D|-2-2-2---------------
    A|---------------3-5-5-
    E|-------3-3-5-5-------
    x4
    
    Verse…
  • C#m
    Humanity
    
    Auf wiedersehen
                      A
    It's time to say goodbye
    
    The party's over
               F#m
    As the laughter dies
    G#
    An angel cries
    
    Humanity
    It's au revoir to your insanity
    You sold your soul to feed your…
  • Вступление:H Hsus2 Hsus4 H  G#msus2 G#msus4 G#m G#msus2  
               Hsus4 H Hsus2 Hsus4  G#m G#msus2 G#msus4 G#m
    
    F# H     F#  G#m    F#          C#m              G#m
    I close my eyes, only for a moment, and the…
  • Dm                           Am
    The lights are slowly fading down
    F
    There's no one else, just you and me
    E
    Nothing ever changed
    Dm                      Am
    I see your faces in the crowd
    F
    It seems I know each one of you
    E
    For…
  • Intro and refr. : 
    
       F     F(cis)F   Cis     C   Ais   GisDis      F   Dis Dis(4)      Dis
    e------------------------------------------------------4---4---4---4---3---3
    h------------------------------------------------------4---4---4---4---4---4
    g------------------6---6---5-----------8---8---10--8---3---3---3---3---3---3
    d------------------4---4---3-----------6---6---8---6------------------------
    a--3---3---4---3---------------8---6----------------------------------------
    e--1---1---1---1---------------6---4----------------------------------------
    
    Verse…
  • Intro :
    
    |-----------------------------------------------|
    |--------1--------1--------1---------1----------|
    |------0--------0--------0-------0h2------------|
    |----2--------2--------2-------2----------------|
    |--3--------2--------0-------2------------------|
    |-----------------------------------------------|
    |
    |
    |-----------------------------------------------|
    |--------13-12--12-10--10-8--10-8---------------|
    |---------------------------------10-9----------|
    |-----------------------------------------------|
    |-----------------------------------------------|
    |-----------------------------------------------|
    
    
    |---------------------------------------3-------|
    |-------1--------1--------1-------------0-------|
    |-----0--------0--------0---------------0-------|
    |---2--------2--------2-----------------0-------|
    |-3--------2--------0-------------------2-------|
    |---------------------------------------3-------|
    |
    |…
  • Verse:
    G|-------------------------------------------------------|---------|
    D|--------4---------4------------------------------------|-4---4---|
    A|-----2-2-2---4-2-2-2----2-0-0-0-0-0-0-0-02-2-2-2-2-2-2-|--4-2-0--|
    E|-2-22-----2-2-2-----2-22-------------------------------|-------2-|
    
    Chorus:
    G|------------------|-----------------------------------|
    D|------------------|-----------------000---------------|
    A|------------------|-222-----00022222------------222-0-|
    E|-3333333222222222-|----00000-----------000002222---2--|
    
    Bridge:
    G|-----------------------------|
    D|-----------------000000002>>-|
    A|-----------------------------|
    E|-3333333322222222------------|…
  • Normal Tuning
    
    
    
    Gtr1|-------7-10--8-7-----------|--------7-------------------|
        |--8-10-----------10--10-10-|-7-8-10---10-7-8--8-8-------|
        |---------------------------|----------------------------|
        |---------------------------|----------------------------|…
  • Solo:
    
    P - Pull-off
    () - Full bend
    
                   Gm       Cm7    F               Gm           Gm
    e|---------|------------|------|---------------|------------|------------|
     |---------|------------|------|---------------|------------|------------|…
  • Standard tuning (E,A,D,G)
    
    Timing: for timing, listen very closely to the intro of the song. After a 
    while, the bass and drums come in. This
    timing is repeated throughout the song. Also, the bass follows the same 
    timing…
  • Solo 1:
    
    Gtr 1|-4---4--2--0-----------------5-4--------------------------------------|
         |-5-------------------------------5/7--------------------2-4-5--7/9--9-|
         |-4------------2----(2)-1----------------------------2-4---------------|…
  • Intro: C - Am - C - Am ...
    
    
                    C 
    A very old friend
    Am          C     Am
    Came by today
             C                         Am               
    'Cause he was telling everyone in town
            C               Am
    About…
  • 1. Intro: Guitar one plays a rhythm tune on A5
    
    2. Verse One, Guitar One Continues Playing the same tune
       with some variations.  ( * this sign with a number over
       the lyrics means variations)
    
    A5
    Give me a job
    A5
    The…
  • Hm
    Hello again
    You've been alone awhile
       Fm#                 Gsus2 Asus2
    And I can use a friend
    Your shades are down
    And I've been waiting here for you to come around
    
              Hm  A        G
    And it's not about forgiveness…
  • Default Tuning
    
    
    Intro:
    
            Am		      F Am F  Am   Am
    Gtr1|----------------------------------------------|
        |-------------------------6-5-6---5------------|
        |--5---5------------------5-5-5---5----5---5---|…
  • Tuning:E
     
    VERSE:
     
    C#               E
    The yellow raven sipped the air
    C#m               Eb
    Of thunder and of rain ...
    C#               E
    The yellow raven sipped the air
    C#m                     Eb
    Gentle eyes kissing the…
  • Standard tuning
    All guitars w/distor
    ---------------------------------------------------------------
    ---------------------------------------------------------------
    ---------------------------------------------------------------
    ---------------------------------------------------------------
    --x-x-x-x-x-x-x-x-x-x-x-x-x-x---------------------(7)-(7)-7----
    --x-x-x-x-x-x-x-x-x-x-x-x-x-x-5-5-5-5-5-5-5-5-5-5--5---5--5----
    p.m.......................................grad.…
  • riff
    e|----|----|--------------------|------------------|---|------------------|
    B|----|----|---10-8-6-10-8------|------------------|---|---10-8h10-6-10-8~|
    G|-7~-|----|-7--------------9-5~|---5-10-7h9-7-5-7~|---|-7----------------|
    D|----|----|--------------------|------------------|---|------------------|
    A|----|----|--------------------|------------------|---|------------------|
    E|----|----|--------------------|------------------|---|------------------|…
  • Intro:
    G|---------------------------------|
    D|---------------------------------|
    A|---------------------------------|
    E|-0-0-0-0-0-0-0-0-0-0-0-0-0-0-0-0-|
    
    Verse:
    G|-------------------------------------------------|
    D|-------------------------------------------------|
    A|-------------------------------------------------|
    E|-0-0-0-0-0-0-0-0-0-0-0-0-0-0-0-0-0-0-0-0-0-0-0-0-|
    
    G|-------------------------------------------------|
    D|-------------------------------------------------|
    A|----------------------------------3-3-3-3--------|
    E|-0-0-0-0-0-0-0-0-0-0-0-0-0-0-0-0-0-------0-0-0-0-|
    
    Chorus:
    G|-0-0----------0-0-----------0-0--------------------------|----------|
    D|----0-0-2-2------0-0-2-2-2-2---0-0-2-2-------0-0-2-2-2-2-|----------|
    A|-----------3-3------------------------3-3-2-2------------|-00000003-|
    E|---------------------------------------------------------|----------|…
  • Tuning:e B G D A E
    
    ARE YOU THE ONE?
    Dm
    Dm            Gm
    Another rainy morning,
    C              A7
    people rushing by.
        Dm           Gm
    My head is still in the clouds,
        C              A7
    I dream with open eyes.
    Gm…
  • VERSE:
    
           Bm                    Em
     And I see the tears in your eyes
         D                G
     The rain will fall tonight
           Bm                    Em
     And tonight we'll go to the sky
       D            E
     Because and…
  • e|--------------------------------------------------------------8-----|
    B|-13b-13r-10-13-10----------------------------------------------8b---|
    G|---------------------7br-7v-----7(v+ah)-----5--------------5--------|
    D|----------------------------10-----------/7-------------/7----------|
    A|-----------------------------------------------5-3------------------|
    E|--------------------------------------------------------------------|
    
    
    
    
    e|----------------------------------8----------------12-12-13b--------|
    B|------------------------------------8b---10-8b----------------------|
    G|--2----------------------------5------------------------------------|
    D|----5-2-----------(5b+ah)-------------------------------------------|
    A|--------3-5b---3----------------------------------------------------|
    E|--------------------------------------------------------------------|
    
    
    
    
    e|---12----12----12---------------------------------------------------|
    B|------15----13----13b-------13---12---------------------------------|
    G|------------------------------------12------------------------------|
    D|--------------------------------------12-14…
  • Standard tuning
    
    Intro  Distortion
    -----------------------------------------------------
    -----------------------------------------------------
    --7-9----12-11--7-9---12-14--7-9---12--11--7-9--12-14
    --7-9----12-11--7-9---12-14--7-9---12--11--7-9--12-14
    --5-7----10-9---5-7---10-12--5-7---10--9---5-7--10-12
    -----------------------------------------------------
    
    Fig…
  • ---------------------------------------
    --7/-----7--5-4-3-----------------------
    --7/-----7--5-4-3-----------------------
    --7/-----7--5-4-3-----------------------
    --5/-----5--3-2-1------1-2-3-2-0--------
    --------------------------------3-2-1~--
    
    
    
    ---------------------------------------------------
    ---------------------------------------------------
    --------7-x-7-------7-------------7-x-7------------
    ---9-9--7-x-7--9-9--7---7/9--9-9--7-x-7--9-9--7-7-7
    ---9-9--5-x-5--9-9--5---7/9--9-9--5-x-5--9-9--7-7-7
    ---7-7---------7-7----0-5/7--7-7---------7-7--5-5-5
    
    
    ------------------------------------------5-5-
    ------------------------------------------5-5-
    ---7-7-7-7-7-7-7-7-7----------------7-----5-5-
    ---7-7-7-7-7-7-7-7-7----------------7---------
    ------------------------------------5---------
    ----------------------------------------------
    
    
    --------------------------------------------------
    ----------------7h8^9^8^9^8-----------------------
    --5/7--7/----5h7----------------------------------
    -------7/-----------------------------------------
    -------5/-----------------------------------------
    --------------------------------------------------…
  • 1.)
       F
    You never take the easy way
                                          Am
    The wind is blowing straight into your face
        F
    You never close your eyes
                                       Am
    For any trouble that may cross…
  • b=bend
     r=release
     v=vibration
     br=bend+release 
       
       Intro:
    
      |-----------------------------------12b-12v------|-------------|
      |--------7-8-10--10br--10b-----10/---------------|-------------|
      |------9-----------------------------------------|-------------|…
  • INTRO : Em D C G D
    
     Em   D           C             G  D
     Hey you, I'm in love with your eyes
     Em        D            C    G D
     And the sound of your name
     Em   D           C             G  D
     Hey you, I'm in love with your…
  • G			    Em
    In a run down bed and breakfast
    G		Em    G		Em
    A room with a view, across the river
    G				Em
    I tried to loose the claustrophobia
    G		     Em
    Opened up and find Utopia
    
    C		    D
    There's no more denying
    C		D
    As my…
  • CHORDS (PLAYED BY RUDOLF SCHENKER) :
    
    
    -Intro-         Em   (B)Bb   (G)B   (C)Em
                    Em   (B)C    (G)B   (Gb)Em
    
    -Verse 1-   (open E)    background guitar harmony: 
                                   Em  C…
  • b=bend
    v=vibration
    r=release
    =slide
    
    Gtr1&2|-------------------------------------------------------------|  
          |-------------------------------------------------------------|  
          |-9-9-9-9---------9-9-9-9------------9-9-9-9------9-9----9-9--|…
  • INTRO:
                                                                                 
      Am               /  Am              /  G            /  Am              /
    E>----------------| >----------------| >-------------|------------------|
    A>----------------|…
  • A5
      Stranded in this town
    F5
      My machine slows down
    G5                      A5   
      To take me where the night begins
    A5
      I'm playing everywhere
    F5
      Loving here and there
    G5                    A5  
      I always take the…
  • Default Tuning
    
    Intro (Rhythm Guitar) :
    Play this Overdrive 4 times
    
    |-------------------------------------------------------|
    |-------------------------------------------------------|
    |-7-7--7---------7-7--7---------7-7--7---------10----5--|
    |-7-7--7----3----7-7--7----3----7-7--7----3----10----5--|
    |-5-5--5--0---0--5-5--5--0---0--5-5--5--0---0---8----3--|
    |-------------------------------------------------------|
    
    Verse:
    
    |-----------------------------------------------------------|
    |-----------------------------------------------------------|
    |--7---------------------5-5-5--7--------------------5-6-7--|
    |--7----3--5----5--7-----5-5-5--7---3--5----5--7-----5-6-7--|
    |--5----3--5----5--7-----3-3-3--5---3--5----5--7-----3-4-5--|
    |-------1--3----3--5----------------1--3----3--5------------|
    
    ooh,…
  • F#m         E            F#m
    Suddenly I think I always knew
     F#m            E                F#m
    I had my share all mistakes made quite a few       
     F#m       E                    F#m
    Finally I know and that's for sure…
  • fig 1
    ---------------------------?------?-----------|
    ---------------------------?------?-----------|
    ----9-9-8----12-12-12---x--?-7----?--12-------|
    ----9-9-8----12-12-12---x--?-7----?--10-------|
    ----7-7-6----10-10-10---x--?-5----?-----------|
    ---------------------------?------?-----------|
    
    fig…
  • Intro
    gtr1 distor
    ----------------------------------------------------------------------------
    ----------------------------------------------------------------------------
    ---6-6-----------------------------------6-6--------------------------------
    ---6-6-x-6-4-----------------------------6-6-x-6-4------------------(4)-----
    ---4-4-x-6-4-----------------------------4-4-x-6-4------------------(4)-----
    -------x-4-2---------------------------------x-4-2------------------(2)-----…
  • Перебор:
      Hm     D      A      G      F#     Em
    e|------|------|------|------|------|------|
    H|--3--3|--7--7|--2--2|--3--3|--2--2|--8--8|
    G|-4--4-|-7--7-|-2--2-|-4--4-|-3--3-|-9--9-|
    D|---4--|---7--|---2--|------|------|---9--|
    A|2-----|5-----|0-----|---5--|---4--|7-----|
    E|------|------|------|3-----|2-----|------|
    
    Вступление:
  • F#m                               Em
    
    F#m                               Em
    
    
         Leaves are falling from the tree
    F#m                               Em 
    
         More than anything I want to be
    F#m                       Em…
  • Standard tuning
    
    Intro
    -------------------------------------------|
    -------3-1-------3-1------3-2------3-2-----|
    ------0---0-----0---0----2---2----2---2----|
    -----2-----2---2-----2--2-----2--2-----2---|
    ----3---------3--------0--------0----------|
    -------------------------------------------|
    Every…
  • Standard tuning
    gtr1 distor    
    ----------------------------------------------------------------------------
    ----------------------------------------------------------------------------
    ----------------------5-5-5---------------------------------5-5-5-----------
    ----7-7-7-----5---3---5-5-5--5---3--------7-7-7-----5---3---5-5-5--5-3-5----
    ----7-7-7-----5---3---3-3-3--5---3--------7-7-7-----5---3---3-3-3--5-3-5----
    ----5-5-5-0-0-3-0-1-0------0-3-0-1-0------5-5-5-0-0-3-0-1-0------0-3-1-3----
    
    
    
    
    ----------------------------------------------------------------------------
    ----------------------------------------------------------------------------
    ----------------------5-5-5---------------------------------5-5-5-----------
    ----7-7-7-----5---3---5-5-5--5---3--------7-7-7-----5---3---5-5-5--5--------
    ----7-7-7-----5---3---3-3-3--5---3--------7-7-7-----5---3---3-3-3--5--------
    ----5-5-5-0-0-3-0-1-0------0-3-0-1-0------5-5-5-0-0-3-0-1-0------0-3--------
    
    guitar3…
  • Intro
    e---------------------------------------------------------------
    B---------------------------------------------------------------
    G----7-9--------9-7-----------9-7----7-9-----9-7-----------5----
    D----7-9--------9-7----5--7---9-7----7-9-----9-7----5--7---5----
    A----5-7--------7-5----5--7---7-5----5-7-----7-5----5--7---3----
    E----------------------3--5-------------------------3--5--------
    
    Background…
  • E---b---------b-----------------h-sl-------------------------------------- 
    B---9---------9----------------7-9--11----------h-h----------------------- 
    G-------10--------10---11-8---------------10-8-6-8-10---8-----------------…
  • A5                 
    I've Been around the world 
    A5
    I've known alot of girls 
    A5
    Living and loving 
    A5                      G5     E5
    It's hard to keep them all in line 
    
    A5
    I've seen a lot of sights
    A5
    Many crazy nights…
  • THE TUNNING IS NOT STANDARD
    THE CHORDS ARE
    E B G D A D
    THE 'E' BASS CHORD MUST BE TUNED TO 'D'
    
    ---3-2---0-1---1-3------------------------------------------------------------
    ---------------------3-1-3----------------------------------------------------
    ------------------------------------7-----------------------------------------
    ------------------------------------7-----------------------------------------
    ------------------------------------5-----------------------------------------
    -0-----0-----0-----0----------------------------------------------------------…
  • ELECTRIC GUITAR (standard tuning)
    
    intro  B5-B5-B5-B5-A-B5
    
    then   B5-B5    D5-D5    B5-B5    E5-E5 ....(repeating)
    
    
    Bridge
    
    D5     G?        D5        G?        D5         G?      E5
      This moment in time, i'm losing my…
  • RYTHM|-1-x-1-2-4-4-4-x-x-x-1-|  1=Normal
                                    x=Hand muted and really short
                                    2=Long
                                    4=Really long
    
    INTRO|-----------------------------------|…
  • Intro, normal tuning
    E-----------------------------------------------------------------------
    B-----------------------------------------------------------------------
    G---9--5--7--4-----------9--5--7--4-------------------------------------
    D---9--5--7--4-----------9--5--7--4-------------------------------------
    A---7--3--5--2-----------7--3--5--2-------------------------------------
    E-----------------------------------------------------------------------
    
    
    
    E---12---3p0--0---5p0-----7p0-----0-----8p0-----7p0-----5p0-----0------
    B-----------------------------------------------------------------------
    G-----------------------------------------------------------------------
    D-----------------------------------------------------------------------
    A-----------------------------------------------------------------------
    E-----------------------------------------------------------------------
    
    
    
    E---0----3p0--0----5p0----7p0----0----8p0----0----0----7----0----0------
    B-----------------------------------------------------------------------
    G-----------------------------------------------------------------------
    D-----------------------------------------------------------------------
    A-----------------------------------------------------------------------
    E-----------------------------------------------------------------------…
  • intro, part 1 and 2
    
    part 1
    
    -------------------------------------------------
    -------------------------------------------------
    -----H-------------------------H-----------------
    ---9-8-----------------------9-8---------11-13--
    -6------6-9-8-6--11-9-----6-----6-9-8-6--9-11--
    -------------------9-7---------------------------
    
    part…
  • Electric w/distor   Intro
    --------------------------------------------------------------
    --------------------------------------------------------------
    ---------------------------4^(5)------------------------4^(5)-
    ---------------------------3^(4)------------------------3^(4)-
    --------------------------------------------------------------
    -----1-1-1-1-1-1-1-1-1-1-1--------1-1-1-1-1-1-1-1-1-1-1-------
    p.m.......................…
  • fig 1                                             fig2
    
    e--------------------------------------------------------|-------|
    B---4-4-4-4-4-4-4-4-4-4------5-5-5-5-5------5--4--5------|--4----|
    G---4-4-4-4-4-4-4-4-4-4------5-5-5-5-5------5--4--5------|--4-X10|
    D---4-4-4-4-4-4-4-4-4-4------5-5-5-5-5------5--4--5------|--4----|
    A---2-2-2-2-2-2-2-2-2-2------3-3-3-3-3------3--2--3------|--2----|
    E--------------------------------------------------------|-------|…
  • ------------------------------------------------------------------------|
    ------------------------------------------------------------------------|
    ------------------------------------------------------------------------|
    -------5----5----5---5---5---7----7---7---7-----------------------------|
    ------5----5----5---5---5---7----7---7---7------------------------------|
    -----7----7----7---7---7---5----5---5---5-------------------------------|
    repeat…
  • -------2-0--3-0------------2-3--3-0-3-5----------2-2-0-------0-0-2-0-2-3-5-|--|
    ---0-3----------1-3----0-3-----------------0h1h3-------0h1h3---------------|--|
    -0-------------------0-----------------------------------------------------|--|
    ---------------------------------------------------------------------------|--|
    ---------------------------------------------------------------------------|--|
    ---------------------------------------------------------------------------|--|…
  • Tuning : -1/2
    
    Intro:
          B5            A5           G5             F#5  G A
    Gtr1|----------7------------5-----------3---------------------|
        |------------------------------------------------------------|
        |------------------------------------------------------------|…
  • STANDARD TUNING
    
    INTRO RIFF
    e-------------------|
    b-------------------|
    g--------2----------|
    D----3-5---5-3-5----|
    A--5----------------|
    E----------------3--|
    
    VERSE
               pm
    e---------------------------|
    b---------------------------|
    g------------------7-5-7-5--|
    D--5-5-3-3---------7-5-7-5--|
    A--5-5-3-3---------5-3-5-3--|
    E--3-3-3-1-1-1-1-1----------|
    
    PRE…
  • ------------------------------------------------------------------------------
    ------------------------------------------------------------------------------
    ------------------------------------------------------------------------------
    -7--8-7-5-7-8--7--8-7-5-5--7--8-7-5-7-8--7--8-7-5-5---------------------------
    -7--8-7-5-7-8--7--8-7-5-5--7--8-7-5-7-8--7--8-7-5-5---------------------------
    -5--6-5-3-5-6--5--6-5-3-3--5--6-5-3-5-6--5--6-5-3-3---------------------------…
  • Intro: F#  Bbm  E  C# (2X) 
     
    Guitar 1 - Rudolf 
    E|-14--------|-13--------|-12--------|-13-----------------|-14--------|-13--------|-12--------|-13------| 
    B|-11--------|-14--------|-12--------|-14-----------------|-11--------|-14--------|-12--------|-14------|…
  • e||-----------------|---------------------------------|
    B||-----------------|---------------------------------|
    G||---2-1-----------|------2-1------------------------|
    D||-------2-2-2/3---|----------2-2-2/3---3-3-3/5-3----|
    A||-----------------|---------------------------------|
    E||-0---------------|--0---------------------------0--|
    
    
    
    
    ||-------------|-------------|-------------|----------------|
    ||-------------|-------------|-------------|----------------|
    ||-------------|-------------|-------------|----------------|
    ||-2-2-2-3-2-2-|-2-2-2-3-2-2-|-2-2-2-3-2-2-|-------0---0----|
    ||-------------|-------------|-------------|-0-2-3---3------|
    ||-------------|-------------|-------------|----------------|
    
    
    
    ||-------------|-------------|------------------------|
    ||-------------|-------------|------------------------|
    ||-------------|-------------|10-10-10-10-10-10--9----|
    ||-2-2-2-3-2-2-|-2-2-2-3-2-2-|10-10-10-10-10-10--9----|
    ||-------------|-------------|-8--8--8--8--8--8--7----|
    ||-------------|-------------|------------------------|…
  • Intro: Played by 3 guitars.
    Gtr1:
    ------------------------- --------------------------- ------------------------
    --10-10-10-10-10-10-10-10 -9--9--9--9--9--9--9--9---- -8--8--8--8--8--8--8--8-
    --12-12-12-11-11-11-11-11 -11-11-11-10-10-10-10-10---…
  • Standard tuning
    
    Intro
    Elec. w/clean tone gtr 1
    ------------------------------------------------------
    ------------------------------------------------------
    --------0----0-0-0------0----0-0-0------0-0-0---0-0-0-
    -------0----0----------0----0----------0-------0------
    ------0----0----------0----0----------0-------0-------
    ---1/3----1--------1/3----1--------1/3-------1--------
    
    
    Elec…
  • Play 5 times        
    e---------------------------------------------------------------------
    B---------------------------------------------------------------------
    G-----------------------------------------------5---------------------
    D---------4----------7/4----------4/----------5-----------------------
    A---------4--4/2-----5/2----------4/----------5-----------------------
    E-0-0-0-0--------0-0------0-0-0-0-----0-0-0-0-------------------------…
  • Intro
    |--------------------------------------------------------|
    |--------------------------------------------------------|
    |o------------------------------------------------------o|
    |o-9-9-7-9-9-7-9-7-9-9-7---9-9-7-9-9--7-9-10-11-12-(10)-o|
    |--7-7-5-7-7-5-7-5-7-7-5---7-7-5-7-7--5-7-8--9--10-(8)---|
    |--------------------------------------------------------|
    
    chorus
    |--------------------------------------|
    |--------------------------------------|
    |--------------------------------------|
    |-9-8-7-5--2---------------2-----------|
    |-7-6-5-3--2---------------2-----------|
    |----------00--0-3-0-2-0-1-00--0-3-0-2-|
    
    verse
    |-------------------------------------------------------|
    |-------------------------------------------------------|
    |-------------------------------------------------------|…
  • intro (play several times)
    ------------------------------------------------------
    ------------------------------------------------------
    ------------------------------------------------------
    ------------------------------------------------------
    -2p0-2p0-2p0--0-2-3-4-5---2p0-2p0-2p0--0-2-3-4--------
    ------------------------------------------------------
    
    ------------------------------------------------------
    ------------------------------------------------------
    ------------------------------------------------------
    -----------------------5---7--------------------------
    -2p0-2p0-2p0--0-3-4-5--5---7--------------------------
    -----------------------3---5--------------------------
    
    verse
    ------------------------------------------------------
    ------------------------------------------------------
    ------------------------------------------------------
    --5---7--/---x--5----7-/----x--5----7--/--------------
    --5---7--/---x--5----7-/----x--5----7--/--------------
    --3---5--/---x--3----5-/----x--3----5--/--------------
    
    chorus
    ----------------------------------------------------------------
    ----------------------------------------------------------------
    -9----7---------------------------------------------------------
    -9----7----7----9-----4/5---4/5---4/5---4/5-----9-9-9-9-9-9-9-9-
    -7----5----7----9-----4/5---4/5---4/5---4/5-----9-9-9-9-9-9-9-9-
    -----------5----7-----2/3---2/3---2/3---2/3-----7-7-7-7-7-7-7-7-
    
    ------------------------------------------------------
    ------------------------------------------------------
    -9----7-----------------------------------------------
    -9----7----7----9-----4/5---4/5-----------------------
    -7----5----7----9-----4/5---4/5-----------------------
    -----------5----7-----2/3---2/3-----------------------
    
    rhythm…
  • intro
    
    ----------------------------------------------------
    ----------------------------------------------------
    ----------------------------------------------------
    --9--9----9---9--9--9-----9--9--9--9--9---9--9------
    --7--7----7---7--7--7----10--7--9--7--10--7--7------
    --------0-------------------------------------------
    
    rhythm…
  • intro (repeat several times)
    
    --------------------------------------------------------
    ---9----9-9-9----/12------------------------------------
    ---9----9-9-9----/12------------------------------------
    ---9----9-9-9----/12------------------------------------
    ---7----7-7-7----/10------------------------------------
    -0------------------------------------------------------
    
    main…
  • Verse:
    G|----------------------------------------------------------------|
    D|------------------------------------22222-2---------------------|
    A|-44444-444444-444444-444444-444444-4-------22222-2-44444-444444-|
    E|----------------------------------------------------------------|
    
    Chorus:
    G|-----------------------------------------------------------------------|
    D|-----------------------------------------------------------------------|
    A|-00-000-022-222-244-444-444-44-2-00-000-022-222-244-444-444-44-2-0-2-4-|
    E|-----------------------------------------------------------------------|…
Наверх