Аккорды Scorpions - Let me take you far away

Добавлено: @romashka
Дата добавления: 23 Марта 2013г.
Рейтинг:
0.0
Просмотров: 448
Транспонировать - +
Dm
Let me take you far away
      C       A    Dm
You`d like a holiday
Dm
Let me take you far away
      C       A    Dm
You`d like a holiday

           C                Dm
Exchange the cold days for the sun
G              A
Good times and fun
Dm
Let me take you far away
      C       A    Dm  Dm7 Dm6 A4 A`
You`d like a holiday

Dm
Let me take you far away
      C       A    Dm
You`d like a holiday
Dm
Let me take you far away
      C       A    Dm
You`d like a holiday
           C                 Dm
Exchange your troubles for some love
    G        A
Wherever you are
Dm
Let me take you far away
      C       A    Dm  Dm7 Dm6 A4 A`
You`d like a holiday

Dm
Longing for the sun you will come
       C              Bb
To the island without name
          Dm
Longing for the sun be welcome
       C           Bb              Dm
On the island many miles away from home
            C              Bb
Be welcome on the island without name
          Dm
Longing for the sun you will come
       C           Bb              Dm   C  Bb
To the island many miles away from home.

Chord fingerings:

   EADGbe      EADGbe      EADGbe
A4 002230   A` 002255   Bb 113331


Picking:

      Dm                         C
E|-------1--------1--------1--|-----0--------0-----------|
B|----------3--------2--------|--------1--------1--------|
G|-------------2--------3-----|-----------0--------------|
D|----0-----------------------|--------------------------|
A|----------------------------|--3------------------3--2-|
E|----------------------------|--------------------------|

   A
E|----0-----0------0-|
B|------2-----2------|
G|--------2-----2----|
D|-------------------|
A|-0-----------------|
E|-------------------|

      C                          G
E|-------0--------0--------0--|-----3--------3--------3-|
B|----------1--------1--------|--------0--------0-------|
G|-------------0--------0-----|-----------0--------0----|
D|----------------------------|-------------------------|
A|----3-----------------------|-------------------------|
E|----------------------------|--3----------------------|


The Dm-Dm7-Dm6-A4-A interlude:

   Dm                          Dm7
E|---- 1--------1--------1--|-----1--------1--------1--|
B|--------3--------3--------|--------3--------3--------|
G|-----------2--------2-----|-----------2--------2-----|
D|--0-----------------------|--------------------------|
A|--------------------------|--3-----------------------|
E|--------------------------|--------------------------|

    Dm6
E|----1-----1------1-|
B|------3-----3------|
G|--------2-----2----|
D|-------------------|
A|--1----------------|
E|-------------------|

   A4                          A`
E|-----0--------0--------0--|-----5--------5--------5-|
B|--------3--------3--------|--------5--------5-------|
G|-----------2--------2-----|-----------2--------2----|
D|--------------------------|-------------------------|
A|-0------------------------|--0----------------------|
E|--------------------------|-------------------------|
comments powered by Disqus
Наверх