Аккорды Shame'n' 'Shame - Люксы

Добавлено: @romashka
Дата добавления: 12 Августа 2020г.
Рейтинг:
0.0
Просмотров: 48
Транспонировать - +
 Intro:  
 
 Riff x2                       
 
1|----------------------------------------------------------------
2|----------------------------------------------------------------
3|----------------------------------------------------------------
4|-0-0-0-0--------------------------------------------------------
5|-0-0-0-0-------/s8-7-7------------------------------------------
6|-0-0-0-0--------------------------------------------------------


Verse:
Riff 1:
1|-----------------------------------------------------------------
2|-----------------------------------------------------------------
3|-----------------------------------------------------------------
4|-----------------------------------------------------------------
5|-------------------------------8-----7------5--5-----------------
6|-0--0-0-0---0---0-0-0--0-0-0-----0-0---0-0---0-------------------
Не сыпь мне соль на рану – 
Сто пудов пока что рано 
Размышлять за всех баранов,
Шевелить извилин храмы -
Проще схавать, что поплоще, да пожиже, да приятней,
Riff 2:
1|-----------------------------------------------------------------
2|-----------------------------------------------------------------
3|-----------------------------------------------------------------
4|-----------------------------------------------------------------
5|-------------------------------8--7-7----------------------------
6|-0--0-0-0---0---0-0-0--0-0-0-------------------------------------
Чем блевать потом от страшного кровавыми стихами.
Riff 3:
1|-----------------------------------------------------------------
2|-----------------------------------------------------------------
3|-----------------------------------------------------------------
4|---------------7-------------------------------------------------
5|----------8--------7-------5---5--5------------------------------
6|-0--0-0-0---0-0--0---0-0-0--0-0-0--------------------------------
Что можно делать в мире, где в улыбке каждой твари
Погибающие мысли в переплётах полушарий?
Под коробкой черепной прижился целый бестиарий, 
Riff 4:
1|-----------------------------------------------------------------
2|-----------------------------------------------------------------
3|-----------------------------------------------------------------
4|---------------7-------------------------------------------------
5|----------8--------8--7-7----------------------------------------
6|-0--0-0-0---0-0--0-----------------------------------------------
Словно маятник, маячащий пред мутными зрачками.
Riff 5:
1|----------------------------------------------------------------
2|----------------------------------------------------------------
3|----------------------------------------------------------------
4|-0-0-0-0-------8-7-3-----0-0-0-0--------------------------------
5|-0-0-0-0-------8-7-3-----0-0-0-0--------------------------------
6|-0-0-0-0-------8-7-3-----0-0-0-0--------------------------------
Хотите хавать быстро? Хотите хавать часто?
Обеспечьте мне врача и доступ к связи с Богом в чате!
Отчаянные читерства встречают безучастные,
Жующие, вечно что-то жрущие массы.

Chorus
Riff:
1|-----------------------------------|---------------------------------------------------------------|----
2|-----------------------------------|---------------------------------------------------------------|----
3|-----------------------------------|---------------------------------------------------------------|----
4|-0-0-0-0--5-6--0-0-0---------------|-0-0-0-0--5-6--0-0-0-0--5-6----------------0-0-0---------------|----
5|-0-0-0-0--5-6--0-0-0--5-5-5--6-6-7-|-0-0-0-0--5-6--0-0-0-0--5-6--5-5-5--6-6-7--0-0-0--7-7-7--6-6-5-|----
6|-0-0-0-0--5-6--0-0-0---------------|-0-0-0-0--5-6--0-0-0-0--5-6----------------0-0-0---------------|----

1|---------------------------------------------------------------------------
2|---------------------------------------------------------------------------
3|---------------------------------------------------------------------------
4|-0-0-0-----------------0-0-0-----------------------------------------------
5|-0-0-0--5-5-5--6-6-7---0-0-0--7-7-7-6-6-6-5-5-5-6-6-6-7-7-7-6-6-6-5--------
6|-0-0-0-----------------0-0-0-----------------------------------------------
Вы захотели смотреть Апокалипсис, расположившись с комфортом
в номере люкс?
Вот, получите, и плюйтесь презрительно, что спецэффекты некачественны:
«Пусть переделают, пусть»
«Пусть переделают, пусть»
«Перезапустите мне пульс»
«Дайте мне свежую грусть»
«И принесите мартини в ведёрке со льдом в мой номер люкс»

Pre-verse riff
1|----------------------------------------------------------------
2|----------------------------------------------------------------
3|----------------------------------------------------------------
4|-0--------------------------------------------------------------
5|-0--------------------------------------------------------------
6|-0--------------------------------------------------------------

Verse
Riff 1:
1|-----------------------------------------------|------------------------------------------|--------------
2|-----------------------------------------------|------------------------------------------|--------------
3|-----------------------------------------------|------------------------------------------|--------------
4|-----12-------12-------12-------12-------12----|------14------14-----14------14------14---|--------------
5|---12------12--------12------12-------12---12--|---12------12-----12-----12-------12---12-|--------------
6|-12-----12--------12------12-------12----------|-12-----12------12-----12------12---------|--------------

1|-----------------------------------------------|------------------------------------------|--------------
2|-----------------------------------------------|------------------------------------------|--------------
3|-----------------------------------------------|------------------------------------------|--------------
4|-----15-------15-------15-------15-------15----|------14------14-----14------14------14---|--------------
5|---12------12--------12------12-------12---12--|---12------12-----12-----12-------12---12-|--------------
6|-12-----12--------12------12-------12----------|-12-----12------12-----12------12---------|--------------

1|-----------------------------------------------|------------------------------------------|--------------
2|-----------------------------------------------|------------------------------------------|--------------
3|-----------------------------------------------|------------------------------------------|--------------
4|-----12-------14-------15-------14-------12----|------12------14-----15------14------12---|--------------
5|---12------12--------12------12-------12-------|---12------12-----12-----12-------12------|--------------
6|-12-----12--------12------12-------12----------|-12-----12------12-----12------12---------|--------------


Этот корабль оборудован удобнейшими шлюзами,
По ним вас спустят в космос и, дрейфуя, как медузы,
Вы сможете с комфортом наблюдать конец Вселенной,
Потягивая через трубки ваш любимый вермут.

Калька со сказки про Доктора?
Вселенная снова сторчалась.
Девять кругов, перекресток
Цивилизации.
Хаос.

Chorus
Riff:
1|-----------------------------------|---------------------------------------------------------------|----
2|-----------------------------------|---------------------------------------------------------------|----
3|-----------------------------------|---------------------------------------------------------------|----
4|-0-0-0-0--5-6--0-0-0---------------|-0-0-0-0--5-6--0-0-0-0--5-6----------------0-0-0---------------|----
5|-0-0-0-0--5-6--0-0-0--5-5-5--6-6-7-|-0-0-0-0--5-6--0-0-0-0--5-6--5-5-5--6-6-7--0-0-0--7-7-7--6-6-5-|----
6|-0-0-0-0--5-6--0-0-0---------------|-0-0-0-0--5-6--0-0-0-0--5-6----------------0-0-0---------------|----

1|---------------------------------------------------------------------------
2|---------------------------------------------------------------------------
3|---------------------------------------------------------------------------
4|-0-0-0-----------------0-0-0-----------------------------------------------
5|-0-0-0--5-5-5--6-6-7---0-0-0--7-7-7-6-6-6-5-5-5-6-6-6-7-7-7-6-6-6-5--------
6|-0-0-0-----------------0-0-0-----------------------------------------------
Вы захотели смотреть Апокалипсис, расположившись с комфортом
в номере люкс?
Вот, получите, и плюйтесь презрительно, что спецэффекты некачественны:
«Пусть переделают, пусть»
«Пусть переделают, пусть»
«Перезапустите мне пульс»
«Дайте мне свежую грусть»
«И принесите мартини в ведёрке со льдом в мой номер люкс»


Solo:
1|-----------------------------|----------------------------------
2|-----------------------------|----------------------------------
3|----------12-14-12---12------|----------12-14-12--12------------
4|-12-14-15----------15--15-14-|-12-14-15---------15--15-14-------
5|-----------------------------|----------------------------------
6|-----------------------------|----------------------------------

Outro
1|----------------------------------------------------------------
2|----------------------------------------------------------------
3|----------------------------------------------------------------
4|-0--------------------------------------------------------------
5|-0--------------------------------------------------------------
6|-0--------------------------------------------------------------
Рыжее
Желтеющее
Сорвалось с горизонта 
Вниз,
В красные лужи
Крови.
Здесь что-то дует…
Несите Армагеддон мне в номер.

Tuning-Drop d
s-slide 
Наверх