Аккорды «Shawn James»

Популярные аккорды Shawn James:
алфавиту | просмотрам | случайно
  • Capo 4    
      Em                             Am
    e|-0----0----0--|-0----0----0--|-0----0----0--|-0----0----0--|
    B|---0----0----0|---0----0----0|---1----1----1|---1----1----1|
    G|----0----0----|----0----0----|----2----2----|----2----2----|
    D|-----------2--|-----------2--|------2-------|------2-------|
    A|------2-------|------2-------|-0---------0--|-0---------0--|
    E|-0------------|-0------------|--------------|--------------|…
  • [Intro]
    
    E|------------------------------------------|
    B|------------------------------------------|
    G|------------------------------------------|
    D|-------------0----------------------------|
    A|---0p2---0p2------0p2---------------------|
    E|-0-----3--------0-----3/5-5/7b8r7~--------|
    
    E|------------------------------------------|
    B|------------------------------------------|
    G|------------------------------------------|
    D|-------------0----------------------------|
    A|---0p2---0p2------0p2---------------------|
    E|-0-----3--------0-----3/2-3/2p0-----------|
    
    The…
  • Em Am B7 G B7/F# | Em Am B7
     
                                 Em
    When does it get quiet? 
     Am                 B7             G      B7/F#    Em
    Time was supposed to extinguish the desire...
                Am…
Наверх