Аккорды Shawn James - Through The Valley

Добавлено: @romashka
Дата добавления: 30 Ноября 2019г.
Рейтинг:
0.0
Просмотров: 28
Транспонировать - +
Capo 4    
  Em                             Am
e|-0----0----0--|-0----0----0--|-0----0----0--|-0----0----0--|
B|---0----0----0|---0----0----0|---1----1----1|---1----1----1|
G|----0----0----|----0----0----|----2----2----|----2----2----|
D|-----------2--|-----------2--|------2-------|------2-------|
A|------2-------|------2-------|-0---------0--|-0---------0--|
E|-0------------|-0------------|--------------|--------------|

    Em                            B7 
e|-0----0----0--|-0----0----0--|-0----0----0--|-0----0---0-0-0|
B|---0----0----0|---0----0----0|---0----0----0|---0----0-0-0-0|
G|----0----0----|----0----0----|----2----2-2--|----2-----2-2-2|
D|-----------2--|-----------2--|------1-------|------1-----1-1|
A|------2-------|------2-------|-2------------|-2----------2-2|
E|-0------------|-0------------|--------------|---------------|

    Em                            Am
e|-0----0----0--|-0----0----0--|-0----0----0--|-0----0----0--|
B|---0----0----0|---0----0----0|---1----1----1|---1----1----1|
G|----0----0----|----0----0----|----2----2----|----2----2----|
D|-----------2--|-----------2--|------2-------|------2-------|
A|------2-------|------2-------|-0---------0--|-0---------0--|
E|-0------------|-0------------|--------------|--------------|

    Em               B7                         Em                         I          
e|-0----0----0--|----0-----0----0--0---0------|-0----0----0--|-0----0----0--|
B|---0----0----0|----0-----0----0--0---0------|---0----0----0|---0----0----0|
G|----0----0----|----2-----2-------2---2------|----0----0----|----0----0----|
D|-----------2--|----1-----1-------1---1------|-----------2--|-----------2--|
A|------2-------|-2--2-----2-------2---2------|------2-------|------2-------|
E|-0------------|-----------------------------|-0------------|-0------------|

   Em                            Am
I walk through the valley of the shadow of death
   Em                         B7
And I fear no evil because I'm blind to it all
      Em                            Am
And my mind and my gun they comfort me
           Em                B7               Em
Because I know I'll kill my enemies when they come
        Em                                       Am
Surely goodness and mercy will follow me all the days of my life
    Em                               B7
And I will dwell on this earth forevermore
      Em                                       Am
Said, I walk beside the still waters and they restore my soul
             Em                     B7                 Em
But I can't walk on the path of the right because I'm wrong

(Бой)
        Em                             Am
Well I came upon a man at the top of a hill
 Em                                     B7    
Called himself the savior of the human race
        Em                            Am
Said he come to save the world from destruction and pain
             Em                   B7          Em
But I said, "How can you save the world from itself?"
          Em                              Am
Because I walk through the valley of the shadow of death
   Em                       B7
I fear no evil because I'm blind
         Em                                     Am
Oh, and I walk beside the still waters and they restore my soul
      Em         B7              Em
But I know when I die my soul is damned

Capo 4
comments powered by Disqus
Наверх