Аккорды Spirit - I Got a Line on You

Добавлено: @romashka
Дата добавления: 05 Декабря 2017г.
Рейтинг:
0.0
Просмотров: 208
Транспонировать - +
Tuning:Standard
   Intro                   x2
e|--------------------------|
B|--------------------------|
G|----------7-9---------9-7-|
D|----------7-9---------9-7-|
A|--------------------------|
E|--7--7--7-----7--7--7-----|


  Verse                    x4  Chorus
     x2
e|--------------------------|-(3)-(3)---------(5)-(5)---------(7)-(7)-----------------------------|
B|--------------------------|-(3)-(3)---------(5)-(5)---------(7)-(7)-----------------------------|
G|----------7-9---------9-7-|--4---4--4-4-4-4--6---6--6-6-6-6--8---8--8-8-8-8-8-8-8-8-8-8-8-8-----|
D|----------7-9---------9-7-|--5---5--5-5-5-5--7---7--7-7-7-7--9---9--9-9-9-9-9-9-9-9-9-9-9-9-----|
A|--------------------------|--5---5--5-5-5-5--7---7--7-7-7-7--9---9--9-9-9-9-9-9-9-9-9-9-9-9-----|
E|--7--7--7-----7--7--7-----|--3---3--3-3-3-3--5---5--5-5-5-5--7---7--7-7-7-7-7-7-7-7-7-7-7-7-----|

  Play verse - Chorus x2

  The fills Seem to be improv in the key of E blues Scale(Pentatonic??)

  During solo Bass Plays Verse Riff you can also hear the keyboard hitting a B over and 
over

  Note: my take on solo(help me out if u Know better)
        I also think its two guitars?

   solo                                                     x2
e|------------15-15-15-15---------------15-15----15\-----------|
B|------15-17-------------17p15-15-17~ -15-15-15-15\-15-14-15--|
G|---/16--------------------------------------16---------------|
D|---------------------------------------------------12-11-12--|
A|-------------------------------------------------------------|
E|-------------------------------------------------------------|

                  x3            Pull offs fast
e|-----------------|----------------------------------------|
B|------12---14-12-|----------------------------------------|
G|------12---14-12-|-14b-12---------------------------------|
D|--14~ ---14------|--------14--14p12-14p12-14p12-14p12-14~ |
A|-----------------|----------------------------------------|
E|-----------------|----------------------------------------|

 After Solo
 chorus
 verse - chorus
 chorus a bunch stop and drop a piano out a window

| /  slide up
| \  slide down
| h  hammer-on
| p  pull-off
| ~  vibrato
| +  harmonic
| x  Mute note
===============================================================================
Наверх