Аккорды «Steely Dan»

Steely Dan
Дональд Фэйген и Уолтер Бекер подружились еще в колледже, поскольку у них обнаружились похожие интересы в музыке (джаз, блюз, поп) и современной литературе (черный юмор). В 1967-68 годах вместе они переиграли в куче различных команд. Затем Фэйген и Бекер перешли к сочинению собственного материала, который пытались пристроить в какую-нибудь записывающую компанию. После долгих обиваний порогов музыкантам удалось подписать контракт с маленькой фирмой, которой владела группа "Jay and the Americans".… Читать полностью... Дональд Фэйген и Уолтер Бекер подружились еще в колледже, поскольку у них обнаружились похожие интересы в музыке (джаз, блюз, поп) и современной литературе (черный юмор). В 1967-68 годах вместе они переиграли в куче различных команд. Затем Фэйген и Бекер перешли к сочинению собственного материала, который пытались пристроить в какую-нибудь записывающую компанию. После долгих обиваний порогов музыкантам удалось подписать контракт с маленькой фирмой, которой владела группа "Jay and the Americans". С этим ансамблем ребята проработали до 1971 года, а затем перебрались в Нью-Йорк, желая сочинять песни на профессиональной основе. Там-то их и подцепил лос-анжелесский продюсер Гэри Кац, пристроивший парней в "ABC/Dunhill". Он же и предложил музыкантам сколотить свою собственную группу, от чего те не стали отказываться. Позаимствовав название для своего проекта из новеллы Уильяма Бэрроуза "Naked Lunch" Дональд и Уолтер приступили к репетициям. На помощь в создании дебютного альбома "Steely Dan" они пригласили Денни Диаса (гитара), Джеффа Бакстера (гитара), Джима Ходдера (ударные) и Дэвида Палмера (вокал). Начиная с 1973 года группа гастролировала в Англии и США, причем состав ее частенько изменялся. Кроме этого за пару лет "Steely Dan" выпустили два альбома, "Countdown To Ecstasy" и "Pretzel Logic". Все ведущие вокальные партии теперь исполнял Дональд, а на лидер-гитаре играл Вальтер. В 1974-м состоялось последнее турне группы, в котором кроме основателей коллектива приняли участие Майк Макдональд (клавишные, вокал), Джефф Поркаро (ударные) и Ройс Джонс (перкуссия, вокал). По окончании этого мероприятия Фэйген и Бекер решили окончательно завязать с концертами и перевести проект на чисто студийную основу. В результате на следующий год все остальные участники ансамбля были уволены, а альбомы стали записываться при помощи сессионных музыкантов. На качестве материала это отразилось в лучшую сторону, и пластинки "Steely Dan", изданные в этот период пользовались относительно большим спросом. Высшим достижением группы стала работа 1977 года "Aja". На сессии этого альбома были приглашены такие музыканты как Уэйн Шортер и Ли Райтнур, что придало "Стальному Дэну" более джазовое звучание. "Aja" провел в лучшей пятерке целых три недели, а по итогам продаж получил "платину". К сожалению, у лейбла "ABC" начались проблемы, и выход следующего альбома задержался на три года. "Gaucho" появился на свет только в 1980-м. Пластинка также имела хороший успех, попав в американский Топ 10, но на следующий год было объявлено о том, что пути Фэйгена и Бекера разошлись. Дональд принялся записывать сольник, а Вальтер отправился на Гавайи выращивать авокадо на своем ранчо. Свое сотрудничество музыканты возобновили в 1993 году, когда Бекер выступил в роли продюсера второго сольного альбома Фэйгена. На следующий год коллеги поменялись ролями, и уже Фэйген продюсировал пластинку Бекера. А в 2000 году бывшие коллеги реанимировали вывеску "Steely Dan" и общими усилиями записали первый за последние 20 лет студийник "Two against nature". Оказалось, что старики еще могут производить качественный товар, и диск даже получил "Грэмми" в номинации "альбом года". Этим дело не ограничилось и "Стальные Дэны" провели успешные гастроли, а потом вновь отправились в студию, чтобы порадовать своих фанов очередной пластинкой. Скрыть...
Популярные аккорды Steely Dan:
алфавиту | просмотрам | случайно
  • Sound Effects     0:24                                                      
    G---|-----------------||---------------------|---------------------||-----------
    D---|-----------------||*--------9--9--------|--------9--9--------*||-----------
    A---|-----------------||*--7--------------7--|--7--------------7--*||--7--------
    E---|-----------------||---------------------|---------------------||-----------…
  • INTRO:
    ------
    
     C7#9
    
    
    VERSE 1:
    --------
    
    Am                          G6
     While the music played you worked by candle light
    
          F6/9                                Bb13
    Those San Fransisco nights, they were the best in…
  • [C11] [F] [Am7] [D] [C11] [F] [C]
    
    [FMaj] A race of angels[Em7]bound with [Dm7] one[C]another
    [FMaj7]A dish of dollars[Em7] laid out for [Dm7]all to[G]see
    [Em7]A tower room at[G9]Eden Rock,[C]his golf at[Bb]noon for[A7]free
    [C11]Brooklyn…
  • |-------------------11/12-----------11/12-----------11/12-----------11/12--|
    |-------------------13/14-----------13/14-----------13/14-----------13/14--|
    |-------------4-5------------4-5-------------4-5-------------4-5-----------|
    |-1-2-3-4---O--------------O-----O---------O-----O---------O-----O---------|
    
    
    |--------------------------------------------------6---7-------------------|
    |----------------------------------------------3h4---5---------------------|
    |-----5-7-5--7------5-4-5h7----7-5-4-5----7---------------------5-7--------|
    |-O-O----------O--5---------O-----------O---O-------------O-5-7-----O------|
    
    
    |--------------------------------------------------------------------------|
    |--------------------------------------------------------------------------|
    |---5-4--55-x-4-3---(5)-------------------5-7---------5--------------------|
    |-5---------------3-----3-x-2-1---O-O-5-7-----O--55-7---3h4h5--------------|
    
    
    |--------------------------------------------------------------------------|
    |---------5-3--------------------------------------------------------------|
    |-------3--------------5-7--------------5-7-------------------------------|
    |-O-O-5--------O-O-5-7------3-5--O-O-5-7-----O-----------------------------|
    
    Chorus
    |--------------------------------------------------------------------------|
    |-------2-3-4--------/7-9-10-12---------4-5-7-9-10------------4------------|
    |-----2-------2---O-------------12-----------------10-----------2-2-2-2----|
    |-1-2-----------O------------------10-----------------8---O-2-----------O--|
    
    Break
    |-----------------------------------------------11----99h11----------------|
    |-5-7-----5---5-7-----5--------5-7-----5-----11----11----------------------|
    |-----5-7---------5-7--------------5-7-----9----------------O-2-2-2-2------|
    |------------------------5-7------------------------------------------O----|
    
    On…
  • VERSE 1:
    ---------
    
           C9
    In the corner  of my eye     I saw you in Rudy's  you were very high
    
    
    A7#9     C/D                  E7#9                    Bb/Eb
    You were high       it was a  crying  disgrace   (They saw…
  • Intro :
    ---------
    
       A          C#m7               A                D
    
    E--0-----2----4---2--0---2---4------5---5/7---4---3---2-------|
    B--2-----4----5---4--2---4---5------7---7/9---5---5---3-------|
    G-------------------------------------------------------------|
    D-------------------------------------------------------------|
    A-------------------------------------------------------------|
    E-------------------------------------------------------------|…
  • D               A/C#            Bm7                 A
    		Your ever lastin' summer, you can see it fadin' fast,
    	      D                       A/C#            Bm7                 A
    		So you grab a piece of somethin' that…
  • INTRO:
    ------
    E--
    B--2-3-2-3-2-3-2-3--|     keep repeating
    G--2-4-2-4-2-4-2-4--|
    D--
    A--
    E--
    
    While the two note idea above keeps repeating, the guitar plays :
    
    
    E---------------------------------9-9-9-9-----9--9--9------------------------------|
    B---------------------------------8-8-8-8-----8--8--8------------------------------|
    G---------------------------------9-9-9-9-----9--9--9------------------------------|
    D------2--------4-4-------2--------------------------------2---------4-4-------2---|
    A---4--0--------2-2--4--2-0-----------------------------4--0---------2-2--4--2-0---|
    E---2----------------2--0-------------------------------2-----------------2--0-----|
    
    
    E-----9---|
    B-----10--|…
  • | Bsus2/Eb      | E/D        |  Am/C     | Dm9      | F7         |  E7          
                                            
    Am                          Am+7
    I don't mind the quiet
    
                   Am7        Am6
    Or the lonely…
  • INTRO:
    ------
    
    
    G6/9  F#7#9   F6/9  E7#9   Eb6/9  D7#9
    
    
    VERSE 1:
    --------
    
    Cmaj7   Gsus2/B  Cmaj7  Gsus2
                              I've seen your
    
    
    Cmaj7     Gsus2  Cmaj7  Gsus2
    picture                 your name in lights…
  • |G7        |          | C        | F/C    C |
    
    
    |G7        |          | C        | F/C    C |
    
    
    G7
    I was scrapin'  bottom 
    
    
    Gropin'  in the dark
    
    
    
    It takes a crusty punk to really beat
    
              Ab                  Ab6
    The…
  • INTRO:
    ------
    
    Cmaj7   Gsus2/B   Bbmaj7    Fsus2/A    Dmaj7    Asus2/C#    Cmaj7    Gsus2/B
    
    Ebmaj7    E7#9
    
    
    VERSE 1:
    --------
    
    G13         F13          G/A     F13
    This is the day of the expanding man
    
    G13…
  • Intro riff then |Am7| 4X Chord code: Chord/Bass
    
    Am7
    
    I would love to tour the Southland in a travelling minstrel show
    
    	Dm7
    
    Yes I?d love to tour the Southland in a travelling minstrel show
    
    	D/E	E/A	C/D	D/G
    
    Yes I?m dying…
  • Intro :
    -------
    
    Am      Am/G Am     Am/G
    
    Verse 1:
    --------
    
    Am         G                F         G     Am
    I could be wrong but I have seen your face before
    
    Am           G              C                Dm
    You were the…
Наверх