Аккорды The B-52's - Hero Worship

Добавлено: @romashka
Дата добавления: 17 Февраля 2024г.
Рейтинг:
0.0
Просмотров: 67
[Intro]

A5    D5    A5    D5

    A5    D5    A5    D5
Hey!

[Verse 1]

A5       D5     A5       D5
 Heroes falling to the ground
A5          D5
 Like Hell's  magnet
A5    D5 A5  D5
Pulls me down
A5    G5   D5
On my knees
A5        G5  D5
 I try to please

e|----------------------------------------|
B|----------------------------------------|
G|-------------------------5-5------------|
D|----------2-1---------------------------|
A|----0-0-0------------2-0------------2-0-|
E|---------------3-3-3----------3-3-3-----|
  His eyes   -   his idol eyes

[Interlude]

e|-------------------------------------|
B|-------------------------------------|
G|----------------------5-5------------|
D|------2-1----------------------------|
A|0-0-0------------2-0-------------2-0-|
E|-----------3-3-3-----------3-3-3-----|

[Verse 2]

A5
 Jerking motions
G5            D5
 Won't revive him
A5        G5     D5
 Mouth to mouth, wah, wah!
A5      G5 D5
 Resuscita-tion
A5         G5  D5  A5          G5  D5
Oh, I just lay     down beside him

e|-------------------------------------|
B|-------------------------------------|
G|----------------------5-5------------|
D|------2-1----------------------------|
A|0-0-0------------2-0-------------2-0-|
E|-----------3-3-3-----------3-3-3-----|
  And iii-iii-iii-idolize

[Interlude]

e|-------------------------------------|
B|-------------------------------------|
G|----------------------5-5------------|
D|------2-1----------------------------|
A|0-0-0------------2-0-------------2-0-|
E|-----------3-3-3-----------3-3-3-----|

[Verse 3]

A5
 Motor, motor
G5      D5
 Broken hearted
A5
 Rusted, rotted
G5         D5
 Falling apart
A5
 A lock of hair
  G5      D5
A belt he wore
A5                  G5       D5
 It's not enough, I want more

e|-------------------------------------|
B|-------------------------------------|
G|----------------------5-5------------|
D|------2-1----------------------------|
A|0-0-0------------2-0-------------2-0-|
E|-----------3-3-3-----------3-3-3-----|
  God - God - God give me his soul - I said

e|-------------------------------------|
B|-------------------------------------|
G|----------------------5-5------------|
D|------2-1----------------------------|
A|0-0-0------------2-0-------------2-0-|
E|-----------3-3-3-----------3-3-3-----|
  God - God - God give me his soul - yeah!

[Instrumental]

e|-------------------------------------|
B|-------------------------------------|
G|----------------------5-5------------|
D|------2-1----------------------------|
A|0-0-0------------2-0-------------2-0-|
E|-----------3-3-3-----------3-3-3-----|

e|-------------------------------------|
B|-------------------------------------|
G|----------------------5-5------------|
D|------2-1----------------------------|
A|0-0-0------------2-0-------------2-0-|
E|-----------3-3-3-----------3-3-3-----|

[Verse 4]

A5     D5      A5     D5
Heroes falling to the ground
A5        D5
Like Hell's magnet
A5    D5 A5
Pulls me down
D5    A5    G5   D5
      On my knees
A5       G5    D5
I try to please

e|----------------------------------------|
B|----------------------------------------|
G|-------------------------5-5------------|
D|----------2-1---------------------------|
A|----0-0-0------------2-0------------2-0-|
E|---------------3-3-3----------3-3-3-----|
  His eyes - his i-i-i-idol eyes

[Interlude]

e|-------------------------------------|
B|-------------------------------------|
G|----------------------5-5------------|
D|------2-1----------------------------|
A|0-0-0------------2-0-------------2-0-|
E|-----------3-3-3-----------3-3-3-----|

[Outro]

A5                 D5
  Ha! heroe worship
A5
He deserves it
D5
And what's of it

A5    G5  D5  A5    G5  D5

e|----------------------------------------|
B|----------------------------------------|
G|--0---0---0---0---0---0---0---0---0---0-|
D|----------------------------------------|
A|0---0---0---0---0---0---0---0---0---0---|
E|----------------------------------------|

A5              G5
  I want more - of it

e|-------------------------------------|
B|-------------------------------------|
G|----------------------5-5------------|
D|------2-1----------------------------|
A|0-0-0------------2-0-------------2-0-|
E|-----------3-3-3-----------3-3-3-----|
  Wooohooohooohoooh

A5             G5  D5
I need more - Ahoooh!

e|-------------------------------------|
B|-------------------------------------|
G|----------------------5-5------------|
D|------2-1----------------------------|
A|0-0-0------------2-0-------------2-0-|
E|-----------3-3-3-----------3-3-3-----|
  I need more -ore, -ore, -ore,

 A5          G5    D5
-Ore, -ore, -ore, -ore

e|-------------------------------------|
B|-------------------------------------|
G|----------------------5-5------------|
D|------2-1----------------------------|
A|0-0-0------------2-0-------------2-0-|
E|-----------3-3-3-----------3-3-3-----|
  Iiiiiiiiih!

A5       G5  D5
Mooo-ooo-ooo-ore

e|-------------------------------------|
B|-------------------------------------|
G|----------------------5-5------------|
D|------2-1----------------------------|
A|0-0-0------------2-0-------------2-0-|
E|-----------3-3-3-----------3-3-3-----|

A5    G5  D5

e|-------------------------------------|
B|-------------------------------------|
G|----------------------5-5------------|
D|------2-1----------------------------|
A|0-0-0------------2-0-------------2-0-|
E|-----------3-3-3-----------3-3-3-----|

A5    G5  D5  
Но если и музыка нас оставит, что будет тогда с нашим миром? (Гоголь)
Мы стремимся к созданию контента, соответствующего всем нормам законодательства и уважающего интеллектуальную собственность. Мы также придаем большое значение тому, чтобы не задеть никого и не оскорбить чьи-либо чувства. Если у вас есть вопросы или претензии по размещенному материалу, пожалуйста, сообщите нам об этом.
Шрифт
-
0
+
Прокрутка
-
0
+
Стоп
Наверх