Аккорды The B-52's - Summer Of Love

Добавлено: @romashka
Дата добавления: 17 Февраля 2024г.
Рейтинг:
0.0
Просмотров: 76
Standard Tuning

LEAD GUITAR

0:45
e-4-4-4-4-4-2----4--2-2-|
B-4-4-4-4-4-2----4--2-2-|
G-----------------------|
D-----------------------|
A-----------------------|
E-----------------------|

e-2-2---2--2--4----2-0-2-4--2---9-9-|
B-2-2---2--2--2----2-0-2-4--2---7-7-|
G-----------------------------------|
D-----------------------------------|
A-----------------------------------|
E-----------------------------------|

e-9-9--9-9--9-9-|
B-9-9--9-9--9-9-|
G---------------|
D---------------|
A---------------|
E---------------|

1:58
e-6-4-4-4-4-9----4-4--2-2-|
B-4-4-4-4-4-9----4-4--2-2-|
G-------------------------|
D-------------------------|
A-------------------------|
E-------------------------|

e-2-2---2--2--4----2-4-2-4--2-|
B-2-2---2--2--2----2-4-2-4--2-|
G-----------------------------|
D-----------------------------|
A-----------------------------|
E-----------------------------|

e-9-9--9-9--9-9-9-|
B-9-9--9-9--9-9-9-|
G-----------------|
D-----------------|
A-----------------|
E-----------------|


RHYTHM GUITAR

0:45
e-----------------------|
B-----------------------|
G-----------------------|
D--------8-8----------8-|
A-8--8-8-6-6---8--8-8-6-|
E-6--6-6-------6--6-6---|

e---------------------------------------|
B---------------------------------------|
G---------------------------------------|
D-6-6--4--4-4-6-6---6-6-6-6---------8-6-|
A-4-4--2--2-2-4-4---4-4-4-4-4--4-4--6-4-|
E---------------------------2--2-2------|

1:04
e-------------------------|
B-------------------------|
G-------------------------|
D-----8--8-8\6-------4--6-|
A-8-8-6--6-6\4----6--2--4-|
E-6-6-------------4-------|

1:19
e----------------|
B----------------|
G----------------|
D-----8--8-8-8\6-|
A-8-8-6--6-6-6\4-|
E-6-6------------|

2:03
e---------------|
B---------------|
G---------------|
D-----8---------|
A-8-8-6--8-8/11-|
E-6-6----6-6/9--|

2:12
e------|
B------|
G------|
D-8--6-|
A-6--4-|
E------|

2:32
e-----------------|
B-----------------|
G-----------------|
D-----8--8--------|
A-8-8-6--6-8-8/11-|
E-6-6------6-6/9--|

************************************

| \ slide back
| / slide forward

************************************ 
Но если и музыка нас оставит, что будет тогда с нашим миром? (Гоголь)
Мы стремимся к созданию контента, соответствующего всем нормам законодательства и уважающего интеллектуальную собственность. Мы также придаем большое значение тому, чтобы не задеть никого и не оскорбить чьи-либо чувства. Если у вас есть вопросы или претензии по размещенному материалу, пожалуйста, сообщите нам об этом.
Шрифт
-
0
+
Прокрутка
-
0
+
Стоп
Наверх