Аккорды The Black Crowes - Kicking My Heart Around

Добавлено: @vitos
Дата добавления: 16 Октября 2015г.
Рейтинг:
0.0
Просмотров: 500
Intro...

(w/ glass slide on pinky finger)


db|-----/12~--------------|
bb|-----/12~--------------|
Gb|-----/12~--------------|
Ab|-----/12~--------------|
Gb|-----/12~--------------|
Db|-----------------------|

Main Chorus/Melody Riff

db|---------------------------------------------|
bb|---------------------------------------------|
Gb|---0---//5--//7~--------54p0---//54---0----|
Ab|---0---//5--//7~--------54p0---//54---0----|
Gb|---0---//5--//7~-----------------------------|
Db|---------------------------------------------|


Verse Riff

db|---------------------------------|
bb|---------------------------------|
Gb|---------------------------------|
Ab|-----3h5---2p0-----------(0)-----|
Gb|-----------------4h5p4----0------|
Db|---------------------------------|


Bit after chorus.....

db|-----//5~-------------------------------|
bb|-----//5~-------54------0----//12------|
Gb|-----//5~-------54------0----//12------|
Ab|-----//5~-------54------0----//12------|
Gb|-----//5~-------54------0----//12------|
Db|----------------------------------------|


Guitar solo.....

db|---------------------------------------------------------|
bb|---------------------------------------------------------|
Gb|-----4p2h4---x-x---4p2h4---x-x---4p2h4---x-x---4p2--0----|
Ab|-----4p2h4---x-x---4p2h4---x-x---4p2h4---x-x---4p2--0----|
Gb|-----4p2h4---x-x---4p2h4---x-x---4p2h4---x-x---4p2--0----|
Db|---------------------------------------------------------|
Но если и музыка нас оставит, что будет тогда с нашим миром? (Гоголь)
Мы стремимся к созданию контента, соответствующего всем нормам законодательства и уважающего интеллектуальную собственность. Мы также придаем большое значение тому, чтобы не задеть никого и не оскорбить чьи-либо чувства. Если у вас есть вопросы или претензии по размещенному материалу, пожалуйста, сообщите нам об этом.
Шрифт
-
0
+
Прокрутка
-
0
+
Стоп
Наверх