Аккорды The Black Crowes - Soul Singin

Добавлено: @vitos
Дата добавления: 16 Октября 2015г.
Рейтинг:
0.0
Просмотров: 454
c----------------------------|----------------------------------
a------------------0---8~----|-----------------------------8~---
f------0-----0-------0-------|---------0-----0------------------
c----------------------------|--------------------7h9p7---------
f--0h9---0h9---0h9-----------|-----0h9---0h9---0--------0-------
c----------------------------|----------------------------------

---------------------------------------------------------------
---------------------------------------------------------------
-----7--9b11r9-7--7h9p7p4--4-5--7b9r7--5--4--------------------
--7---------------------------------------------5~-------------
---------------------------------------------0-----------------
---------------------------------------------------------------

----------------------------|----------------------------------
------------------0---8~----|-----------------------------8~---
------0-----0-------0-------|---------0-----0------------------
----------------------------|--------------------7h9p7--------- 
--0h9---0h9---0h9-----------|-----0h9---0h9---0--------0-------
----------------------------|----------------------------------

arpeggio down

----7--|---5-------
----7--|---5-------
----7--|---5-------
----7--|---5-------
--0h7--|---5-------
-------------------
lay me down....lay me down

---------------------------------------------------------------
---------------------------------------------------------------
-----7--9b11r9-7--7h9p7p4--4-5--7b9r7--5--4--------------------
--7---------------------------------------------5~-------------
---------------------------------------------0-----------------
---------------------------------------------------------------

prechorus
-----------------------------------
-------------------7--7--5--5------
------0-----0------7--7--5--5------
-------------------7--7--5--5------
--0h9---0h9---0h9--7--7--5--5------
-----------------------------------

chorus

c-----------------------------------------
a-----------------------------------------
f--0--0--0---0--0--0---0--0--0---0--0-----
c--0--2--4---4--5--7---5--4--5---2--0-----
f--0--2--4---5--5--7---5--4--4---2--0-----
c-----------------------------------------
Но если и музыка нас оставит, что будет тогда с нашим миром? (Гоголь)
Мы стремимся к созданию контента, соответствующего всем нормам законодательства и уважающего интеллектуальную собственность. Мы также придаем большое значение тому, чтобы не задеть никого и не оскорбить чьи-либо чувства. Если у вас есть вопросы или претензии по размещенному материалу, пожалуйста, сообщите нам об этом.
Шрифт
-
0
+
Прокрутка
-
0
+
Стоп
Наверх