Аккорды The Black Eyed Peas - Apl Song

Добавлено: @romashka
Дата добавления: 16 Марта 2013г.
Рейтинг:
0.0
Просмотров: 478
|NTRO: Em Bm 2x
C D Em Bm-Em

E|-------10p7-7----------|----------------------|-----10p7-8p7--------------|
B|--------------8h10p8---|-------3h5--5p3-3h5---|--------------10p8---------|
G|-----7--------7------7-|-----4----------------|-------------------7h9-7---|
D|---9-----------------7-|---4----------------4-|---9---------------7---7---|
A|-7---------------------|-2--------------------|-7-----------------------7-|
E|-----------------------|----------------------|---------------------------|

E|----------------------|-------3--------|-----------------|----------------|
B|------3h5-5p3-3h5-----|----------5-----|-------7h8p7-----|-------8h10p8--8|
G|----4-------------4---|-----5------5---|-----7-------7---|-----7-7-------9|
D|--4-------------------|---5------------|---7-----------7-|---9------------|
A|2-------------------2-|-3------------3-|-5---------------|-7--------------|
E|----------------------|----------------|-----------------|----------------|

E|----2------------|------------------|
B|----3--5-3h5-----|-------10/12--8---|
G|-------4-----2-4-|-----7--9/11--9---|
D|-4---------------|---9--------------|
A|-2---------------|-7--------------7-|
E|-----------------|------------------|

CHORUS: Em Bm 2x
C D Em Bm-Em
Но если и музыка нас оставит, что будет тогда с нашим миром? (Гоголь)
Мы стремимся к созданию контента, соответствующего всем нормам законодательства и уважающего интеллектуальную собственность. Мы также придаем большое значение тому, чтобы не задеть никого и не оскорбить чьи-либо чувства. Если у вас есть вопросы или претензии по размещенному материалу, пожалуйста, сообщите нам об этом.
Шрифт
-
0
+
Прокрутка
-
0
+
Стоп
Наверх