Аккорды The Black Eyed Peas - Loosing My Ground

Добавлено: @romashka
Дата добавления: 16 Марта 2013г.
Рейтинг:
0.0
Просмотров: 459
Intro:
e|--------6---------|--------6------|----------6-----|---------------------|
B|-8---8-8-----8----|-7---7-7----7--|-6---6-6----6---|-5----5-5-6-7--------|
G|---7----------7---|---7---------7-|---7----------7-|---7---7-------------|
D|------------------|---------------|----------------|---------------------|
A|------------------|---------------|----------------|---------------------|
E|------------------|---------------|----------------|---------------------|
just REPEAT for verse and chorus:


GUITAR ADLIB:
               ~                  ~
e|-3/5-5-5/6-6-6--|-6/8-8-8/10-10-10--|--10⁄8-8-8⁄6-6-6-|-10-8-6-5-3-------|
B|----------------|-------------------|-----------------|------------------|
G|----------------|-------------------|-----------------|------------------|
D|----------------|-------------------|-----------------|------------------|
A|----------------|-------------------|-----------------|------------------|
E|----------------|-------------------|-----------------|------------------|


2nd adlib:

e|-10⁄8-8-8/10-10-10--|--10⁄8-8-8⁄6-6-6--|--3/5-5-5⁄3-3-3--|-10-8-6-5-3----|
B|--------------------|------------------|-----------------|---------------|
G|--------------------|------------------|-----------------|---------------|
D|--------------------|------------------|-----------------|---------------|
A|--------------------|------------------|-----------------|---------------|
E|--------------------|------------------|-----------------|---------------|

3rd adlib:

e|-3--3--3--3--3----|-5--5--5--5--5----|-6--6--6--6--6---|--3----3---------|
B|---3--3--3--3--3--|---7--7--7--7--7--|---8--8--8--8----|---3----3--------|
G|--3--3--3--3--3---|--7--7--7--7--7---|--7--7--7--7--7--|-3--3----3-------|
D|------------------|------------------|-----------------|-----------------|
A|------------------|------------------|-----------------|-----------------|
E|------------------|------------------|-----------------|-----------------|

Но если и музыка нас оставит, что будет тогда с нашим миром? (Гоголь)
Мы стремимся к созданию контента, соответствующего всем нормам законодательства и уважающего интеллектуальную собственность. Мы также придаем большое значение тому, чтобы не задеть никого и не оскорбить чьи-либо чувства. Если у вас есть вопросы или претензии по размещенному материалу, пожалуйста, сообщите нам об этом.
Шрифт
-
0
+
Прокрутка
-
0
+
Стоп
Наверх