Аккорды The Rasmus - Night After Night (Out of the Shadows)

Добавлено: @romashka
Дата добавления: 07 Ноября 2019г.
Рейтинг:
0.0
Просмотров: 19
Транспонировать - +
Intro 1:
    Em                             B                          
e|-----------------------------------------------------------|
b|-----------------------------------------------------------|
g|-----------------------------------------------------------|
d|-2-2-2-4p2-2-5p2-4p2-2-2-2-2-2-------------------------1-1-|
a|--------------------------------2-2-2-5p2-2-5p2-2-2-2------|
e|-----------------------------------------------------------|

    Em                             B
e|------------------------------------------------------|
b|------------------------------------------------------|
g|------------------------------------------------------|
d|-2-2-2-4p2-2-5p2-4p2-2--2-2-2-2-------------------9/4-|
a|--------------------------------2-2-5p2-2-5p-2-2--9/4-|
e|--------------------------------------------------7/2-|

Intro 2: 
    Em                             B                          
e|-----------------------------------------------------------|
b|-----------------------------------------------------------|
g|-----------------------------------------------------------|
d|-2-2-2-4p2-2-5p2-4p2-2-2-2-2-2-------------------------1-1-|
a|--------------------------------2-2-2-5p2-2-5p2-2-2-2------|
e|-----------------------------------------------------------|

    Em                             B
e|----------------------------------------------------------| x2
b|----------------------------------------------------------|
g|----------------------------------------------------------|
d|-2-2-2-4p2-2-5p2-4p2-2--2-2-2-2-------------------1-1-1-1-|
a|--------------------------------2-2-5p2-2-5p-2-2----------|
e|----------------------------------------------------------|

Verse 1:
Em       Am     B              Em
Heaven sent you, to bring the answer
Em       Am     B              Em
Heaven sent you, to cure this cancer
Em    B            Em
For a moment unbeatable chance
Em    B                    Em
For a moment the world in my hands

Em      D          C
Like an angel you came
C      B           Em
Everytime when I prayed
Em    D          C
Guardian of my dreams
C         B         Em
Watching me when I sleep
Em       D         C
Like an angel you came
C      B            Em  D C
Everytime when I screamed

Chorus:
Em                         
Time after time I lose again
Am                             B
Night after night I wake up shaking
B                          
Cause my world is breaking
Em
I'm fool enough to fall again
Am                             B
Night after night I wake up crying
B
Cause I feel like dying

Intro 2 (or you could play chords Em B Em B)

Verse 2:
Em         Am      B      Em
Still disconnected and unprotected
Em         Am      B      Em
Still I'm haunted but unwanted
Em     B            Em
For a moment unbreakable stars
Em     B                    Em
For a moment you stayed in my arms

Em      D          C
Like an angel you came
C      B           Em
Everytime when I prayed
Em    D          C
Guardian of my dreams
C         B         Em
Watching me when I sleep
Em       D         C
Like an angel you came
C      B            Em  D C
Everytime when I screamed

Chorus:
Em                         
Time after time I lose again
Am                             B
Night after night I wake up shaking
B                          
Cause my world is breaking
Em
I'm fool enough to fall again
Am                             B
Night after night I wake up crying
B
Cause I feel like dying

Intro 1 and intro 2 (or play chords Em B }x4)

Chorus:
Em                         
Time after time I lose again
Am                             B
Night after night I wake up shaking
B                          
Cause my world is breaking
Em
I'm fool enough to fall again
Am                             B
Night after night I wake up crying
B                     Em Em
Cause I feel like dying

Outro:
Em
(Time after time I lose again) *sing this line like an echo*
Am                            B
Night after night I wake up shaking
B
Cause my world is breaking
Em
I'm fool enough to fall again 
Em
(Fool enough to fall again) *sing this line like an echo*
Am                            B
Night after night I wake up crying
B                    Em B Em
Cause I feel like dying
comments powered by Disqus
Наверх